Your One-Stop Source For
Music Lyrics
Bass and Guitar Tabs
and More...
Music Lyrics Bass and Guitar Tabs

 

The Tabs Are Below

Learn To Read Tab
Chords Handbook
Corrections & Additions
Get Official Tab
Blink 182 tabs @ 911Tabs

 

Band:Blink 182

Song:Reckless Abandon

Album:Take Off Your Pants and Jacket

 

 

Intro and chorus:

on and on, reckless abandon....

------------------------------------------------------

------------------------------------------------------

-4444444----------------------------------------------

-4444444--2222222--666666--444444--2------------------

-2222222--2222222--666666--444444--2------------------

----------0000000--444444--222222--0------------------

 

 

post intro:

 

------------------------------------------------------

------------------------------------------------------

------------------------------------------------------

-1---4-2-1---4-2-1---4-2-1---1-2----------------------

---2-------2-------2-------2-----4--------------------

------------------------------------------------------

 

Verse:

 

---------------------------------------------------------------

---------------------------------------------------------------

--44444444444----------------444444444444444-------------------

--44444444444--444444444444--444444444444444--444444444444444--

--22222222222--444444444444--222222222222222--444444444444444--

---------------222222222222-------------------222222222222222--

 

Chorus:

 

----------------------------------------------------------------

----------------------------------------------------------------

--444444444-----------------------------------------------------

--444444444--22222222--66666666--44444444--22222222--666666666--

--222222222--22222222--66666666--44444444--22222222--666666666--

-------------00000000--44444444--22222222--00000000--444444444--

 

Chorus continued:

-------------------------

-------------------------

-------------------------

--4444444444--222222222--

--4444444444--222222222--

--2222222222--000000000--

 

 

Almost the end solo thingy:(really easy)

 

 

---------------------------------------------

---------------------------------------------

--4------------------------------------------

--4--2--6--4---repeat a few times------------

--2--2--6--4---------------------------------

-----0--4--2---------------------------------

 

Return to my to my Blink 182 tabs page

The Tablature is Copyright its respective owners.

 

Sign Up For My Newsletter
Subscribe | Unsubscribe

Site Map | Disclaimer | Privacy Policy | Media Kit | Submissions/Corrections

Website © 2000-2014 mattsmusicpage.com. All rights reserved.

Legal & DMCA: Matt's Music Page has been providing lyrics and tabs in a legal way, paying royalties each year to a few organizations. Then, all lyrics and tabs were removed from the site. Now, there's a new owner to the site, which purchased it August 26, 2014, and he is in negotiation to obtain licensing from BMI at the moment. If you have a specific DMCA request -- please do not hesitate to contact me via the contact button on top. I will do my very best to keep this site fully legal.

Get our toolbar!

 

VINTAGE SORRENTO MUSIC JEWELRY BOX
$45.0
VINTAGE SORRENTO MUSIC JEWELRY BOX picture


VINTAGE LACQUERED MUSIC BOX JAPAN
$25.99
VINTAGE LACQUERED MUSIC BOX JAPAN picture


Vintage Kehlsteinhaus Bavaria Germany Colorscope Cow Bell View Master Music Box
$8.99
Vintage Kehlsteinhaus Bavaria Germany Colorscope Cow Bell View Master Music Box picture


VINTAGE SCHMIDT Signed Collectible Musical Turning Clown
$9.99
VINTAGE  SCHMIDT Signed Collectible Musical Turning Clown picture


Vintage - Linen - Postcard - Stage - Radio City Music Hall - New York City
$3.75
Vintage - Linen - Postcard - Stage - Radio City Music Hall - New York City   picture