Your One-Stop Source For
Music Lyrics
Bass and Guitar Tabs
and More...
Music Lyrics Bass and Guitar Tabs

 

The Tabs Are Below

Learn To Read Tab
Chords Handbook
Corrections & Additions
Get Official Tab
Blink 182 tabs @ 911Tabs

 

Song:Please take me Home

Album: Take off your pants and jacket

Artist: blink 182

Standard tuning

Transcribed: jim-a

 

--------------------------------------------------------------

Intro

e|-------------------------------------------------------------------------|

B|-------------------------------------------------------------------------|

6x

G|2--8-8-8-8-8-8-8-8-8-8-8-8-8-8-8-8--4-4-4-4-4-4-4-4--|

D|x--X-X-X-X-X-X-X-X-X-X-X-X-X-X--X-X--X-X-X-X-X--|

A|4--6-6-6-6-6-6-6-6-6-6-6-6-6-6-6-6--2-2-2-2-2-2-2-2--|

E|--------------------------------------------------------------------------|

 

Done at the same time

 

GUITAR 2

E-------------------------------------------

B--------------(palm muted)-----------------

G--4-4-4-4---6-6-6-6------------------------

D--4-4-4-4---6-6-6-6---6-6-6-6----2-2-2-2---X4

A--2-2-2-2---4-4-4-4---6-6-6-6----2-2-2-2---

E-----------------------------4-4-4-4----0-0-0-0---

---------------------------------------------------------------

 

Pre Chorus: "She's Unstoppable..."

e|----------------------------------------------|

B|----------------------------------------------|

G|--4-4-4-4-4-----------------------------------|

D|--4-4-4-4-4--4-4-4-4-4--6-6-6-6-6--4-4-4-4-4--|

A|--2-2-2-2-2--4-4-4-4-4--6-6-6-6-6--4-4-4-4-4--|

E|-----------------2-2-2-2-2--4-4-4-4-4--2-2-2-2-2--|

 

"Wrong"

e|-------------------------------------------------------|

B|-------------------------------------------------------|

G|------------------------------------------------3-3-3-3-3-3-3-3-----|

D|--2-2-2-2-2-2-2-2-2-2-2-2-2-2-2-2--3-3-3-3-3-3-3-3--4--|

A|--2-2-2-2-2-2-2-2-2-2-2-2-2-2-2-2--1-1-1-1-1-1-1-1--4--|

E|--0-0-0-0-0-0-0-0-0-0-0-0-0-0-0-0--------------------------2--|

 

Chorus: "Please Take, Me Home..."

E|--------------------------------------|

B|--------------------------------------| 2x

G|--4-4-4-4--3-3-3-3--------------------|

D|--4-4-4-4--3-3-3-3--6-6-6-6--2-2-2-2--|

A|--2-2-2-2--1-1-1-1--6-6-6-6--2-2-2-2--|

E|---------------------------4-4-4-4--0-0-0-0--|

 

or you could do this one (i think the one below sounds nicer)

E|------------------------------------------|

B|------------------------------------------| 2x

G|--4-4-4-4---------------------------------|

D|--4-4-4-4---6-6-6-6---6-6-6-6--2-2-2-2--|

A|--2-2-2-2---6-8-8-8---6-6-6-6--2-2-2-2--|

E|----------------8-8-8-8---4-4-4-4--0-0-0-0--|

-----------------------------------------------------------

 

(done at the same time)

 

Verse: "I hope, hope that it lasts"

e|-----------------------------------------------------------------------|

B|-----------------------------------------------------------------------| 4x

G|--8-8-8-8-8-8-8-8-8-8-8-8-8-8-8-8--4-4-4-4-4-4-4-4--|

D|--X-X-X-X-X-X-X-X-X-X-X-X-X-X--X-X--X-X-X-X-X---|

A|--6-6-6-6-6-6-6-6-6-6-6-6-6-6-6-6--2-2-2-2-2-2-2-2--|

E|-----------------------------------------------------------------------|

 

GUITAR 2

E-------------------------------------------

B--------------(palm muted)-----------------

G--4-4-4-4---6-6-6-6------------------------

D--4-4-4-4---6-6-6-6---6-6-6-6----2-2-2-2---X4

A--2-2-2-2---4-4-4-4---6-6-6-6----2-2-2-2---

E---------------------------4-4-4-4----0-0-0-0---

--------------------------------------------------------------

 

Pre Chorus: "She's Unstoppable..."

e|----------------------------------------------|

B|----------------------------------------------|

G|--4-4-4-4-4-----------------------------------|

D|--4-4-4-4-4--4-4-4-4-4--6-6-6-6-6--4-4-4-4-4--|

A|--2-2-2-2-2--4-4-4-4-4--6-6-6-6-6--4-4-4-4-4--|

E|-----------------2-2-2-2-2--4-4-4-4-4--2-2-2-2-2--|

 

"Wrong"

e|-------------------------------------------------------------------------|

B|-------------------------------------------------------------------------|

G|------------------------------------------------3-3-3-3-3-3-3-3-----|

D|--2-2-2-2-2-2-2-2-2-2-2-2-2-2-2-2--3-3-3-3-3-3-3-3--4--|

A|--2-2-2-2-2-2-2-2-2-2-2-2-2-2-2-2--1-1-1-1-1-1-1-1--4--|

E|--0-0-0-0-0-0-0-0-0-0-0-0-0-0-0-0--------------------------2--|

 

Chorus: "Please Take, Me Home..."

e|--------------------------------------|

B|--------------------------------------| 4x

G|--4-4-4-4--3-3-3-3--------------------|

D|--4-4-4-4--3-3-3-3---6-6-6-6--2-2-2-2--|

A|--2-2-2-2--1-1-1-1---6-6-6-6--2-2-2-2--|

E|---------------------------4-4-4-4--0-0-0-0--|

 

or you could do this one (i think the one below sounds nicer)

E|------------------------------------------|

B|------------------------------------------| 2x

G|--4-4-4-4---------------------------------|

D|--4-4-4-4---6-6-6-6---6-6-6-6--2-2-2-2--|

A|--2-2-2-2---6-8-8-8---6-6-6-6--2-2-2-2--|

E|----------------8-8-8-8---4-4-4-4--0-0-0-0--|

 

Interlude: "why did we have to go date"

e|----------------------|

B|----------------------| 4x

G|----------------------|

D|--4-4--6-6--8-8--9-9--|

A|--2-2--4-4--6-6--7-7--|

E|----------------------|

 

(play first 3 notes 8 times)

e|--------------------------------|

B|--------------------------------| 2x (8 times each)

G|--------------------------------|

D|--4-----6----8----9-9-9--------|

A|--2----4-----6-----7-7-7--------|

E|--------------------------------|

(palm muted)

 

"Lets go!"

e|---------------------------------------------------|

B|---------------------------------------------------| 2x

G|--4-4-4-4--3-3-3-3--8-8-8-8----6--4--6----|

D|--x-x-x-x----x-x-x--x--x-x-x--x----x---x--x---|

A|--2-2-2-2--1-1-1-1--6-6-6-6----4--2--4----|

E|----------------------------------------------------|

 

(listen for the timing on this part.)

e|-------------------------------------------------------------------|

B|-------------------------------------------------------------------| 2x

G|--8-8-8-8-8-8-8-8-8-8-8-8--4-4-4-4-4-----------------|

D|--X-X-X-X-X-X-X-X-X-X-X-X--X-X-X-----------------|

A|--6-6-6-6-6-6-6-6-6-6-6-6--2-2-2-2-2------------------|

E|-------------------------------------------------------------------|

 

GUITAR 2

E--------------------------------------------------------I

B--------------(palm muted)------------------------I

G--4-4-4-4---6-6-6-6------------------------------I

D--4-4-4-4---6-6-6-6---6-6-6-6----2-2-2-2---IX4

A--2-2-2-2---4-4-4-4---6-6-6-6----2-2-2-2---I

E-----------------------------4-4-4-4----0-0-0-0--I

 

Chorus: "Please Take, Me Home..."

E|-----------------------------------------------------|

B|-----------------------------------------------------| 2x

G|--4-4-4-4-----------------------------------------|

D|--4-4-4-4---6-6-6-6---6-6-6-6--2-2-2-2--|

A|--2-2-2-2---6-8-8-8---6-6-6-6--2-2-2-2--|

E|---------------8-8-8-8---4-4-4-4--0-0-0-0--|

 

Outro

e|----------------------------------------------------------------------------

 

----|

B|----------------------------------------------------------------------------

 

-----| 1x

G|--8-8-8-8-8-8-8-8-8-8-8-8-8-8-8-8---4-4-4-4-4-4-4-4----------|

D|--X-X-X-X-X-X-X-X-X-X-X-X-X-X---X--X-X-X-X-X-X---------|

A|--6-6-6-6-6-6-6-6-6-6-6-6-6-6-6-6---2-2-2-2-2-2-2-2----------|

E|----------------------------------------------------------------------------

 

-----|

 

e|------------------------------------------------------------------|

B|------------------------------------------------------------------|

G|--8-8-8-8-8-8-8-8-8-8-8-8-8-8-8-8--------------------|

D|--X-X-X-X-X-X-X-X-X-X-X-X-X-X----------------2--|

A|--6-6-6-6-6-6-6-6-6-6-6-6-6-6-6-6----------------2--|

E|---------------------------------------------------2-2------0--|

p.m

Return to my to my Blink 182 tabs page

The Tablature is Copyright its respective owners.

 

Sign Up For My Newsletter
Subscribe | Unsubscribe

Site Map | Disclaimer | Privacy Policy | Media Kit | Submissions/Corrections

Website © 2000-2014 mattsmusicpage.com. All rights reserved.

Legal & DMCA: Matt's Music Page has been providing lyrics and tabs in a legal way, paying royalties each year to a few organizations. Then, all lyrics and tabs were removed from the site. Now, there's a new owner to the site, which purchased it August 26, 2014, and he is in negotiation to obtain licensing from BMI at the moment. If you have a specific DMCA request -- please do not hesitate to contact me via the contact button on top. I will do my very best to keep this site fully legal.

Get our toolbar!

 

Hard Rock Pin Las Vegas 4th of july red white and blue guitar
$5.0
Hard Rock Pin Las Vegas 4th of july red white and blue guitar picture


Hard Rock Pin Hollywood Fl Bell Girl with dice luggage and guitar
$5.0
Hard Rock Pin Hollywood Fl Bell Girl with dice luggage and guitar picture


Hard Rock Pin Las Vegas King of Clubs Guitar rare only 3 lines of info on back
$5.0
Hard Rock Pin Las Vegas King of Clubs Guitar rare only 3 lines of info on back picture


Hard Rock Pin Edmonton guitar pin
$5.0
Hard Rock Pin Edmonton guitar pin picture


Lladro Guitar Boy #4614 - Beautiful Piece of Lladro
$109.0
Lladro Guitar Boy #4614 - Beautiful Piece of Lladro picture