Your One-Stop Source For
Music Lyrics
Bass and Guitar Tabs
and More...
Music Lyrics Bass and Guitar Tabs

 

The Tabs Are Below

Learn To Read Tab
Chords Handbook
Corrections & Additions
Get Official Tab
Blink 182 tabs @ 911Tabs

 

A NEW HOPE

BLINK182

TABBED BY PAT CORCORAN

 

5h7=hammer onto 7 from 5

7p5=pull off to 5 from 7

 

INTRO, in 5 parts

 

Play this 3 times

e ---------------

b ---------------

g 7(hit)-77777---

d 5(hard)55555---

a ---------------

e ---------------

 

Then play this (1x) on 4th:

 

e -------77777---

b -------77777---

g 7(hit)-77777---

d 5(hard)55555---

a ---------------

e ---------------

 

followed by this (2x):

 

e ---------------

b ---------------

g 5(hit)-55555---

d 5(hard)55555---

a ---------------

e ---------------

 

then this (1x):

 

e ---------------

b ---------------

g 7(hit)-77777---

d 7(hard)77777---

a ---------------

e ---------------

 

and then this (1x):

 

e -------77777---

b -------77777---

g 7(hit)-77777---

d 7(hard)77777---

a ---------------

e ---------------

 

the preceding 5 parts make up the intro, which is played 4x

 

VERSE 1 (3X FOLLOWED BY FIRST TWO PARTS OF INTRO):

 

e ---------------------------------------------

b ---------------------------------------------

g ------55---7(LET)--7777----------------------------------

d --55--55---7(THIS)-7777-------------------------------------

a --55--33---5(RING)-5555-------------------------------------

e --33-------------------------------------------

 

VERSE 2 (2X, PLAY ALONG WITH MARK SINGING,"Princess Le-ia where are you tonight..."

 

---------------------------------------------

---------------------------------------------

-7--5-4-----------------------------------------

-7--5-4-5(small)-55555---------------------------------------

-5--3-2-5( )-55555--------------------------------

--------3(pause)-33333------------------------------------

 

VERSE 3 (2X):

 

---------------------------------------------

---------------------------------------------

55-555-7(LET )-55-555------------------------------------------

55-555-7( )-55-555-5------------------------------------------

33-333-5(RING)-33-333-5-----------------------------------------

----------------------3-----------------------

 

PLAY VERSE 2 TWICE FOLLOWED BY INTRO TWICE

THEN PLAY EVERYTHING AFTER INTRO UP TO NOW EXCEPT THE LAST TWO INTROS

 

AFTER SOME DRUMS AND BASE GUITAR PLAY THIS 4X

 

---------------------------------------------

---------------------------------------------

-5h7 5h7 5h7 7(let)--7p5 7p5-7p5-5(let)-----------------------------------------

-5---5---5---5(ring)-5---5---5---5(ring)-------------------------

---------------------------------------------

---------------------------------------------

 

THEN PLAY THIS 3X (LISTEN TO SONG FOR BEAT):

 

---------------------------------------------

---------------------------------------------

----777-545-9-7---------------------------------------

555-777-545-9-7-----------------------------------------

555-555-323-7-5-----------------------------------------

333---------------------------------------------

 

PLAY FOR A 4TH TIME EXCEPT STOP ON 9 AND LET IT RING

9

7

 

THEN PLAY VERSE 2 TWICE

THEN PLAY VERSE 3 TWICE

VERSE 2 TWICE

VERSE 3 TWICE

VERSE 2 TWICE

 

THEN PLAY 5 REPEATEDLY UNTIL MARK SAYS "EVERY NIGHT...

5

3

 

PLAY VERSE 2 ONCE THEN:

 

---------------------------------------------

---------------------------------------------

5(HIT HARD)----9(SAME)-----------------------------------------

5(AND)---------9(AS)-----5(LET)-------------------------------

3(LET RING)----7(BEFORE)-5(FADE)----------------------------------------

-------------------------3(OUT)--------------------

 

Return to my to my Blink 182 tabs page

The Tablature is Copyright its respective owners.

 

Sign Up For My Newsletter
Subscribe | Unsubscribe

Site Map | Disclaimer | Privacy Policy | Media Kit | Submissions/Corrections

Website © 2000-2014 mattsmusicpage.com. All rights reserved.

Legal & DMCA: Matt's Music Page has been providing lyrics and tabs in a legal way, paying royalties each year to a few organizations. Then, all lyrics and tabs were removed from the site. Now, there's a new owner to the site, which purchased it August 26, 2014, and he is in negotiation to obtain licensing from BMI at the moment. If you have a specific DMCA request -- please do not hesitate to contact me via the contact button on top. I will do my very best to keep this site fully legal.

Get our toolbar!