Your One-Stop Source For
Music Lyrics
Bass and Guitar Tabs
and More...
Music Lyrics Bass and Guitar Tabs

 

The Tabs Are Below

Learn To Read Tab
Chords Handbook
Corrections & Additions
Get Official Tab
Blink 182 tabs @ 911Tabs

 

"Man Overboard"-Blink 182

The Mark, Tom, and Travis Show

Tabbed By Josh Renner

E-mail: pointblank73@aol.com

 

I have seen a bunch of different ways to play this on this site

and I would like to say some of you are making this too dificult,

it is simple. This is how it is on the cd, well the cool bass lines

and the cool guitar riff anyway.

 

 

This first part is the Bass part.

 

e-------------------------------------

B-------------------------------------

G-------------------------------------

D-------------------------------------

A-----5-3-2----5-3-2-----5-3-2-3-2----

E-3-3------3-3-------3-3--------------

 

Now that was the bass part and you play that starting out then you play

this guitar part with it and they start singing.

 

e------------------------------------

B------------------------------------

G---------5----------5---------------

D--5-5-/7-5---5-5-/7-5---------------

A--5-5-/7-3---5-5-/7-3---------------

E--3-3-/5-----3-3-/5-----------------

 

Then after they start singing this cool guitar riff comes in.

Play this four times.

 

e---------------------

B---------------------

G---------------------

D--------------------- (4x)

A--2-3-2-----2-3-2-0--

E-3--------3----------

 

 

After that rif then play this. Play this also four times.

 

e----------------------------

B----------------------------

G----------------------------

D--5-------------------------

A----2-3-5--5-5-7-5-3--------

E----------------------------

 

And that is the main riff parts.

I am not as sure about the chorus yet, but here is the verse that

worked for me. This part is palm muted.

 

e----------------------------

B----------------------------

G--------5-------------------

D--5--2--5-------------------

A--5--2--3-------------------

E--3-------------------------

After that I am not sure how the chorus goes,

But this is how I play it.

 

e----------------------------

B----------------------------

G-----7----------------------

D--5--7--2--5----------------

A--5--5--2--5----------------

E--3--------3----------------

 

 

Well you guys should be able to figure out the rest so I hope this helped

you, I am positive the

guitar and bass riffs are right. Well take it easy guys and let me know what

you think.

 

 

Return to my to my Blink 182 tabs page

The Tablature is Copyright its respective owners.

 

Sign Up For My Newsletter
Subscribe | Unsubscribe

Site Map | Disclaimer | Privacy Policy | Media Kit | Submissions/Corrections

Website © 2000-2014 mattsmusicpage.com. All rights reserved.

Legal & DMCA: Matt's Music Page has been providing lyrics and tabs in a legal way, paying royalties each year to a few organizations. Then, all lyrics and tabs were removed from the site. Now, there's a new owner to the site, which purchased it August 26, 2014, and he is in negotiation to obtain licensing from BMI at the moment. If you have a specific DMCA request -- please do not hesitate to contact me via the contact button on top. I will do my very best to keep this site fully legal.

Get our toolbar!