Your One-Stop Source For
Music Lyrics
Bass and Guitar Tabs
and More...
>Music Lyrics Bass and Guitar Tabs

 

The Tabs Are Below

Learn To Read Tab
Chords Handbook
Corrections & Additions
Get Official Tab
Blink 182 tabs @ 911Tabs

 

Longest Line

By Blink 182

From Flyswatter

Tabbed by: SJ (kirei_008@hotmail.com)

 

This is the correct version, as opposed to the previous tab I

submitted for this song.

 

Numbers inbetween [] mean you play the note more then

once, you should listen to the song to get it down.

 

Verse

----------------------------------------------

----------------------------------------------

----------------------------------------------

--[5]------------[5]--------------------------

--[3]--[5]--[7]--[3]--[5]--[3]--7--7--5--5--3-

-------[3]--[5]-------[3]--[1]--5--5--3--3--1-

 

"I must have..."

------------

------------

------------

------------

-3--5--7--8-

-1--3--5--6-

 

 

Chorus:

---------------|-------------------------------------------------

---------------|-------------------------------------------------

---------------|-------------------------------------------------

---------------|-5----------------5--7-10------------------------

---3--5--7--8--|-3--5--7--2---3---3--5--8------------------------

---1--3--5--6--|----3--5--0---1----------------------------------

 

Solo:

------------------------------------------

------------------------------------------

------------------------------------------

------------------------------------------

------10-8-7-----------7-8-8-7------------

--8-8--------10-8-8-10---------10-8-8-10--

 

----------------------------------------------------------------

----------------------------------------------------------------

------------10-9-9-------9-12-12-17-14-12-12-14-12-9------------

--9-9-10-10--------10-10----------------------------------------

----------------------------------------------------------------

----------------------------------------------------------------

 

end song on:

g-5

d-5

a-3

 

Lyrics (thanks to Geekrockbier@aol.com)

 

In the darkest tunnel it's nice to see a light, but just a headlight

Like the one that's headed right for me

It would be nice if things would turn out right, could turn out right, yeah

Don't think I'll ever see the day

I must have done something wrong or maybe pissed off God

I think of Chinese food when I think of life

So sweet and sour

My life is sweet as saccharine

You know three-week old milk and grapes are not,

They're not the same, no

I am the one Johnny Carcinogen

I must have fucked with some witch in turn she cursed me, cursed my life

At the end of the longest line, that's where I will always be

If you need to find me just go to the end of the longest line

 

But officer, that was a yellow light

The light was red, son- insubordination, reckless driving

I must be wrong this can't be right I don't belong

This world is much too dangerous for someone lacking luck like me

At the end of the longest line, that's where I will always be

If you need to find me just go the end of the longest line

(Repeat once more for outro)

 

Check out more tabs @ fly.to/kawp

 

 

-----------------FIX--------------------------------------------------------------------

Wow..I made so many mistakes on my 'transvestite' tab; including the dog song tab mess up

What I said;

-------------------------------

-------------------------------

-----46-------------------------

--------5----5-----5--------7--

--5--------5----3-----3--5-----

-------------------------------

 

what is should be;

 

-------------------------------

-------------------------------

-----7-------------------------

--------5----5-----5--------7--

--5--------5----3-----3--5-----

-------------------------------

 

 

Return to my to my Blink 182 tabs page

The Tablature is Copyright its respective owners.

 

Sign Up For My Newsletter
Subscribe | Unsubscribe

Site Map | Disclaimer | Privacy Policy | Media Kit | Submissions/Corrections

Website © 2000-2014 mattsmusicpage.com. All rights reserved.

Legal & DMCA: Matt's Music Page has been providing lyrics and tabs in a legal way, paying royalties each year to a few organizations. Then, all lyrics and tabs were removed from the site. Now, there's a new owner to the site, which purchased it August 26, 2014, and he is in negotiation to obtain licensing from BMI at the moment. If you have a specific DMCA request -- please do not hesitate to contact me via the contact button on top. I will do my very best to keep this site fully legal.

Get our toolbar!

 

Restored Nordmende Carmen 58 3D Vintage Tube Radio Splendid Valve Amplifier 50s
$1.0
Restored Nordmende Carmen 58 3D Vintage Tube Radio Splendid Valve Amplifier 50s picture


Rock-ola Jukebox Parts. Model 447.Integrated Curcuit Amplifier-46380-A
$80.0
Rock-ola Jukebox Parts. Model 447.Integrated Curcuit Amplifier-46380-A picture


Tube 7ea 6CS6 4NIB GE tstd amp radio amplifier ham
$6.95
Tube 7ea 6CS6 4NIB GE tstd amp radio amplifier ham picture


Tube 5ea JAN 5725 / 6AS6 / 6187 4NIB tstd amp radio amplifier ham
$7.95
Tube 5ea JAN 5725 / 6AS6 / 6187 4NIB tstd amp radio amplifier ham picture


Tube 6ea 6AU6 Hewlett Packard made by GE tstd amp radio amplifier ham
$9.95
Tube 6ea 6AU6 Hewlett Packard made by GE  tstd amp radio amplifier ham picture