Your One-Stop Source For
Music Lyrics
Bass and Guitar Tabs
and More...
Music Lyrics Bass and Guitar Tabs

 

The Tabs Are Below

Learn To Read Tab
Chords Handbook
Corrections & Additions
Get Official Tab
Blink 182 tabs @ 911Tabs

 

The Grandpa Song

Hidden Track on the Jacket CD

Asno_del_gato@yahoo.com

 

I think it sounds the best this way

 

Intro/Verse: (When you fucked...)

e|-2-----0-----2-----0--------------0----------------------|

b|----3-----3-----3-----3--3-----3-----2-----2--3----------|

g|----------------------------0-----------2----------------| (x4)

d|-0-----0-----0-----0-------------------------------------|

a|-------------------------------------0-----0-------------|

e|-------------------------3-----3-------------------------|

 

Chorus: (Grandpa is a...)

e|---------------------------------------------------------|

b|-3-----3-----3-----3-----3-----3-----3-----3-------------|

g|----0-----0-----0-----0-----0-----0-----0----------------| (x3)

d|---------------------------------------------------------|

a|-------------------------0-----0-----0-----0-------------|

e|-3-----3-----3-----3-------------------------------------|

 

(Cont.)

e|---------------------------------------------------------|

b|-2-----2-----2-----2-----2-------------------------------|

g|----2-----2-----2-----2----------------------------------| (x1)

d|---------------------------------------------------------|

a|-0-----0-----0-----0-----0-------------------------------|

e|---------------------------------------------------------|

 

Verse x4

 

Chorus

 

End on

b|--3---|

g|------|

d|------|

a|--0---|

 

 

Return to my to my Blink 182 tabs page

The Tablature is Copyright its respective owners.

 

Sign Up For My Newsletter
Subscribe | Unsubscribe

Site Map | Disclaimer | Privacy Policy | Media Kit | Submissions/Corrections

Website © 2000-2014 mattsmusicpage.com. All rights reserved.

Legal & DMCA: Matt's Music Page has been providing lyrics and tabs in a legal way, paying royalties each year to a few organizations. Then, all lyrics and tabs were removed from the site. Now, there's a new owner to the site, which purchased it August 26, 2014, and he is in negotiation to obtain licensing from BMI at the moment. If you have a specific DMCA request -- please do not hesitate to contact me via the contact button on top. I will do my very best to keep this site fully legal.

Get our toolbar!