Your One-Stop Source For
Music Lyrics
Bass and Guitar Tabs
and More...
Music Lyrics Bass and Guitar Tabs

 

The Tabs Are Below

Learn To Read Tab
Chords Handbook
Corrections & Additions
Get Official Tab
Blink 182 tabs @ 911Tabs

 

Author/Artist: Blink182

Title: Good Times

Album: ???

Transcribed by: Tristan Gruener

Email: Circa6000@aol.com

 

here is the tab for good times by blink182, most of you

probably have never hered it because i don't think its on an

album of theres. some kid went at it, but it sounds

like crap. this is almost perfect, if not.

 

 

 

part 1 - play exactly shown, when done play really fast once

-|----------------------------------------------------------------------------

-|----------------------------------------------------------------------------

-|----------------------------------------------------------------------------

-|----------------------------------4-4---------------------------------------

-|-7-7------9-9------2-2------------2-2---------------------------------------

-|-5-5------7-7------0-0------------------------------------------------------

good times,good times,good times, oh baby, good times

 

 

part 2 - this riff is always played once before it goes into part 3

-|----------------------------------------------------------------------------

-|----------------------------------------------------------------------------

-|-----------------------------44444444---------------------------------------

-|-4444444-4------------------------------------------------------------------

-|-2222222-2-44444444-22222222------------------------------------------------

-|-----------22222222-00000000------------------------------------------------

 

part 3 - play this 5 times------------then play this once

-|------------------------|---------------------------------------------------

-|------------------------|---------------------------------------------------

-|------------------------|---------------------------------------------------

-|-4444444-4--------------|-------4-------------------------------------------

-|-2222222-2-44444444-----|-22222-2-------------------------------------------

-|-----------22222222-----|-00000---------------------------------------------

 

thats it! a preety easy song, but preety cool, e-mail me for questions

or comments

 

~tristan

 

Return to my to my Blink 182 tabs page

The Tablature is Copyright its respective owners.

 

Sign Up For My Newsletter
Subscribe | Unsubscribe

Site Map | Disclaimer | Privacy Policy | Media Kit | Submissions/Corrections

Website © 2000-2014 mattsmusicpage.com. All rights reserved.

Legal & DMCA: Matt's Music Page has been providing lyrics and tabs in a legal way, paying royalties each year to a few organizations. Then, all lyrics and tabs were removed from the site. Now, there's a new owner to the site, which purchased it August 26, 2014, and he is in negotiation to obtain licensing from BMI at the moment. If you have a specific DMCA request -- please do not hesitate to contact me via the contact button on top. I will do my very best to keep this site fully legal.

Get our toolbar!

 

Starbucks You Are Here Coffee Mug/Cup KENTUCKY - Horses, Banjo, Blue, White
$19.99
Starbucks You Are Here Coffee Mug/Cup KENTUCKY - Horses, Banjo, Blue, White picture


KNOWLES ROCKWELL HERITAGE "THE BANJO PLAYER" FIRST EDITION 1989 PLATE COA
$5.99
KNOWLES ROCKWELL HERITAGE


Vintage Postcard 1981 Disney World Banjo Kings Main Street USA 1981 Postmark
$4.99
 Vintage Postcard 1981 Disney World Banjo Kings Main Street USA 1981 Postmark picture


Banjo Barometer With Thermometer Hygrometer 490mm
$84.76
Banjo Barometer With Thermometer Hygrometer 490mm picture


ANTIQUE JAPANESE NIPPON FIGURINE SET OF 3 WOMEN GEISHA PLAYING DRUM BANJO FAN
$24.0
ANTIQUE JAPANESE NIPPON FIGURINE SET OF 3 WOMEN GEISHA PLAYING DRUM BANJO FAN picture