Your One-Stop Source For
Music Lyrics
Bass and Guitar Tabs
and More...
Music Lyrics Bass and Guitar Tabs

 

The Tabs Are Below

Learn To Read Tab
Chords Handbook
Corrections & Additions
Get Official Tab
Blink 182 tabs @ 911Tabs

 

Blink182-GiveMeOneGoodReason

tabbed by Lupus182

lupus182@ziplip.com

 

I think this is the best song on blink's new cd,and certainly the most worth tabbing....

I'm pretty sure this is 99% correct but if you have corrections please email me.

Anyway enjoy.

 

INTRO

---------------------------------------------------------------

---------------------------------------------------------------

---1-------1----------------------1-------1--------------------

-----2---2---2----4-2---4-2---2-----2---2---2----4-2---4-2---2-

----------------2-----2-----2------------------2-----2-----2---

-0-----0------------------------0-----0------------------------

 

 

-----------------------------------------------------------------

-----------------------------------------------------------------

-----------------------------------------------------------------

---6-----6---------4-2---4-2---2---6-----6---------4-2---4-2---2-

-4---7-4---7-4-7-0-----0-----0---4---7-4---7-4-7-0-----0-----0---

-----------------------------------------------------------------

 

---------

---------

---------

-7-7-7-7- (harmonics)

---------

---------

 

VERSES

------------------------------------------------------------------------

------------------------------------------------------------------------

----------4-4-4-4-----------4-4-4-4--6-6-6-6-----------6-6-6-6----------

-2-2-2-2--4-4-4-4--2-2-2-2--4-4-4-4--6-6-6-6--7-7-7-7--6-6-6-6--7-7-7-7-

-2-2-2-2--2-2-2-2--2-2-2-2--2-2-2-2--4-4-4-4--7-7-7-7--4-4-4-4--7-7-7-7-

-0-0-0-0-----------0-0-0-0--------------------5-5-5-5-----------5-5-5-5-

 

 

FILL

---------------------------

---------------------------

------------9--------------

-2-2-2-2-2--9--------------

-2-2-2-2-2--7--------7h9-7-

-0-0-0-0-0--0--7-7-7-------

 

 

CHORUS

-----------------------------------------------------------------

-----------------------------------------------------------------

-----------------9-9-9-9-9-9-9-9---------------------------------

-2-2-2-2-2-2-2-2-9-9-9-9-9-9-9-9-9-9-9-9-9-9-9-9-9-9-9-9-9-9-9-9-

-2-2-2-2-2-2-2-2-7-7-7-7-7-7-7-7-9-9-9-9-9-9-9-9-9-9-9-9-9-9-9-9-

-0-0-0-0-0-0-0-0-0-0-0-0-0-0-0-0-7-7-7-7-7-7-7-7-7-7-7-7-7-7-7-7-

 

 

SOLO

---------------------------------------------------------------

---------------------------------------------------------------

---------------------------------------------------------------

-2-2-2-4-4-4-6-6-6-7-7-7-6-6-6-2-2-2-2---------2-2-2-2---------

---------------------------------------0-0-0-0---------0-0-0-0-

---------------------------------------------------------------

 

---------------------------------------------------------------

---------------------------------------------------------------

---------------------------------------------------------------

-2-2-2-4-4-4-6-6-6-7-7-7-6-6-6-2-4-4-4-4-4\6-2--4-4-4-4\6-2----

---------------------------------------------------------------

---------------------------------------------------------------

 

---------------------------------------------------------------

---------------------------------------------------------------

---------------------------------------------------------------

-2-2-2-4-4-4-6-6-6-7-7-7-6-6-6-2-2-2-2---------2-2-2-2---------

---------------------------------------0-0-0-0---------0-0-0-0-

---------------------------------------------------------------

 

----------------------------------------------------------------

----------------------------------------------------------------

----------------------------------------------------------------

-2-2-2-4-4-4-6-6-6-7-7-7-6-6-6-2-4-4-4-4-4\6-2--4-4-4-4\6-2p0-2-

----------------------------------------------------------------

----------------------------------------------------------------

 

Return to my to my Blink 182 tabs page

The Tablature is Copyright its respective owners.

 

Sign Up For My Newsletter
Subscribe | Unsubscribe

Site Map | Disclaimer | Privacy Policy | Media Kit | Submissions/Corrections

Website © 2000-2014 mattsmusicpage.com. All rights reserved.

Legal & DMCA: Matt's Music Page has been providing lyrics and tabs in a legal way, paying royalties each year to a few organizations. Then, all lyrics and tabs were removed from the site. Now, there's a new owner to the site, which purchased it August 26, 2014, and he is in negotiation to obtain licensing from BMI at the moment. If you have a specific DMCA request -- please do not hesitate to contact me via the contact button on top. I will do my very best to keep this site fully legal.

Get our toolbar!