Your One-Stop Source For
Music Lyrics
Bass and Guitar Tabs
and More...
Music Lyrics Bass and Guitar Tabs

 

The Blink 182 Guitar Tabs Are Below

Learn To Read Tab
Chords Handbook
Corrections & Additions
Get Official Tab
Blink 182 tabs @ 911Tabs

Title: Ghost on the Dancefloor

Artist: Blink 182

Album: Neighborhoods

Year: 2011

 

Tab by: Cameron Clausen

Treven Yeager

 

Tuning: E A D G B e (Standard)

 

0:10-0:46

|-----------------------|-----------------------|

|-----------------------|-----------------------|

|-----------------------|-----------------------|

|-----------------------|-----------------------|

|-2-x-x-2-x-x-2-2-2-x-4-|-2-x-x-2-x-x-2-2-2-x-4-|

|-----------------------|-----------------------|

 

|-----------------------|-----------------------|

|-----------------------|-----------------------|

|-----------------------|-----------------------|

|-----------------------|-----------------------|

|-2-x-x-2-x-x-2-2-2-x-4-|-2-x-x-2-x-x-2-2-2-1-6-|

|-----------------------|-----------------------|

 

|-----------------------|-----------------------|

|-----------------------|-----------------------|

|-----------------------|-----------------------|

|-----------------------|-----------------------|

|-2-x-x-2-x-x-2-2-2-x-4-|-2-x-x-2-x-x-2-2-2-x-4-|

|-----------------------|-----------------------|

 

|-----------------------|-----------------------|

|-----------------------|-----------------------|

|-----------------------|-----------------------|

|-----------------------|-----------------------|

|-2-x-x-2-x-x-2-2-2-x-4-|-2-x-x-2-x-x-2-2-2-1-2-|

|-----------------------|-----------------------|x2

 

0:47-1:23

|---------------------------|

|---------------------------|

|-11-11-11-11--9-9-9-9--8-8-|

|--x--x--x--x--x-x-x-x--x-x-|

|--9--9--9--9--7-7-7-7--6-6-|

|---------------------------|

 

|-----------------------|

|-----------------------|

|-9-9-9-9--8-8-8-8--9-9-|

|-x-x-x-x--x-x-x-x--x-x-|

|-7-7-7-7--6-6-6-6--7-7-|

|-----------------------|x8

 

1:24-1:42

|---------------------------|

|---------------------------|

|-11-11-11-11--9-9-9-9--9-9-|

|--x--x--x--x--x-x-x-x--x-x-|

|--9--9--9--9--7-7-7-7--7-7-|

|---------------------------|

 

|---------------------------|

|---------------------------|

|-11-11-11-11--9-9-9-9--8-8-|

|--x--x--x--x--x-x-x-x--x-x-|

|--9--9--9--9--7-7-7-7--6-6-|

|---------------------------|x4

 

1:43 Held Note

|----|

|----|

|-4~-|

|-4~-|

|-2~-|

|----|

 

1:47-2:05

|-----------------------|-----------------------|

|-----------------------|-----------------------|

|-----------------------|-----------------------|

|-----------------------|-----------------------|

|-2-x-x-2-x-x-2-2-2-x-4-|-2-x-x-2-x-x-2-2-2-x-4-|

|-----------------------|-----------------------|

 

|-----------------------|-----------------------|

|-----------------------|-----------------------|

|-----------------------|-----------------------|

|-----------------------|-----------------------|

|-2-x-x-2-x-x-2-2-2-x-4-|-2-x-x-2-x-x-2-2-2-1-6-|

|-----------------------|-----------------------|

 

|-----------------------|-----------------------|

|-----------------------|-----------------------|

|-----------------------|-----------------------|

|-----------------------|-----------------------|

|-2-x-x-2-x-x-2-2-2-x-4-|-2-x-x-2-x-x-2-2-2-x-4-|

|-----------------------|-----------------------|

 

|-----------------------|-----------------------|

|-----------------------|-----------------------|

|-----------------------|-----------------------|

|-----------------------|-----------------------|

|-2-x-x-2-x-x-2-2-2-x-4-|-2-x-x-2-x-x-2-2-2-1-2-|

|-----------------------|-----------------------|

 

2:06-2:24

|---------------------------|

|---------------------------|

|-11-11-11-11--9-9-9-9--8-8-|

|--x--x--x--x--x-x-x-x--x-x-|

|--9--9--9--9--7-7-7-7--6-6-|

|---------------------------|

 

|-----------------------|

|-----------------------|

|-9-9-9-9--8-8-8-8--9-9-|

|-x-x-x-x--x-x-x-x--x-x-|

|-7-7-7-7--6-6-6-6--7-7-|

|-----------------------|x4

 

2:25-3:01

|---------------------------|

|---------------------------|

|-11-11-11-11--9-9-9-9--9-9-|

|--x--x--x--x--x-x-x-x--x-x-|

|--9--9--9--9--7-7-7-7--7-7-|

|---------------------------|

 

|---------------------------|

|---------------------------|

|-11-11-11-11--9-9-9-9--8-8-|

|--x--x--x--x--x-x-x-x--x-x-|

|--9--9--9--9--7-7-7-7--6-6-|

|---------------------------|x8

 

3:02-3:20

|-----------------|

|-----------------|

|-----------------|

|-9---------------|

|-9---------------|

|-7----2---6---7--|x4

 

3:20-3:27

Lololol - lots of high pitched screeching

just play the top string past

14th fret for a while

 

3:28 - Slide around here-ish.

|------------------------------------|

|------------------------------------|

|------------------------------------|

|-12\\\\\\\\\\\\\\\\\\\\\\\\\\\\\\\\-|

|------------------------------------|

|------------------------------------|

 

 

3:29-4:06

|---------------------------|

|---------------------------|

|-11-11-11-11--9-9-9-9--9-9-|

|--x--x--x--x--x-x-x-x--x-x-|

|--9--9--9--9--7-7-7-7--7-7-|

|---------------------------|

 

|---------------------------|

|---------------------------|

|-11-11-11-11--9-9-9-9--8-8-|

|--x--x--x--x--x-x-x-x--x-x-|

|--9--9--9--9--7-7-7-7--6-6-|

|---------------------------|x8

 

4:06-End

|----|

|----|

|-4~-|

|-4~-|

|-2~-|

|----|

Return to my to my Blink 182 Guitar Tabs page

The Tablature is Copyright its respective owners.

 

Sign Up For My Newsletter
Subscribe | Unsubscribe

Site Map | Disclaimer | Privacy Policy | Media Kit | Submissions/Corrections

Website © 2000-2014 mattsmusicpage.com. All rights reserved.

Legal & DMCA: Matt's Music Page has been providing lyrics and tabs in a legal way, paying royalties each year to a few organizations. Then, all lyrics and tabs were removed from the site. Now, there's a new owner to the site, which purchased it August 26, 2014, and he is in negotiation to obtain licensing from BMI at the moment. If you have a specific DMCA request -- please do not hesitate to contact me via the contact button on top. I will do my very best to keep this site fully legal.

Get our toolbar!