Your One-Stop Source For
Music Lyrics
Bass and Guitar Tabs
and More...
>Music Lyrics Bass and Guitar Tabs

 

The Blink 182 Bass Tabs Are Below

Learn To Read Tab
Chords Handbook
Corrections & Additions
Get Official Tab
Blink 182 tabs @ 911Tabs

Ghost on the Dance Floor - blink-182

-------------------------------------------------------------------------------

 

Tabbed By : slimk

e-mail: kenderickcraig@yahoo.com

 

Tuning:EADG

Intro (0:28):

G|-------------------------------------------------------|

D|---------------------4(x16)-2(x16)-4(x16)-2(x16)-4(x16)|

A|2(x16)-4(x16)-2(x16)-----------------------------------|

E|-------------------------------------------------------|

 

Verse (0:47)

G|---------------------------------|

D|---------------------------------|

A|2(x16)---------------------------|

E|-------0(x16)-4(x12)-2(x4)-0(x16)|

 

G|---------------------------------|

D|---------------------------------|

A|2(x16)---------------------------|

E|-------0(x16)-4(x12)-2(x4)-0(x16)|

 

 

G|---------------------------------|

D|--------------6(x12)-4(x4)-2(x16)|

A|2(x16)-4(x16)--------------------|

E|---------------------------------|

 

G|---------------------------------|

D|--------------6(x12)-4(x4)-2(x16)|

A|2(x16)-4(x16)--------------------|

E|---------------------------------|

 

Chorus (1:24):

G|--------------------------|

D|--------------------------|

A|2(x24)-4(x8)--------------|

E|-------------0(x16)-2(x16)|

 

G|--------------------------------------|

D|--------------------------------------|

A|2(x24)-4(x8)---------------2~~~~~~~~~-|

E|-------------0(x16)-2(x16)------------|

 

Pre-Verse (1:47):

G|-------------------------------------------------------|

D|---------------------4(x16)-2(x16)-4(x16)-2(x16)-4(x16)|

A|2(x16)-4(x16)-2(x16)-----------------------------------|

E|-------------------------------------------------------|

 

Verse (2:06):

G|--------------------------------------|

D|---------------------------------2(x8)|

A|2(x16)--------------------------------|

E|-------0(x16)-4(x12)-2(x4)-0(x8)------|

G|---------------------------|

D|--------------6(x16)-2(x16)|

A|2(x16)-4(x16)--------------|

E|---------------------------|

 

Chorus (2:24):

G|--------------------------|

D|--------------------------|

A|2(x24)-4(x8)--------------|

E|-------------0(x16)-2(x16)|

 

G|--------------------------|

D|--------------------------|

A|2(x24)-4(x8)--------------|

E|-------------0(x16)-2(x16)|

 

G|--------------------------|

D|--------------------------|

A|2(x24)-4(x8)--------------|

E|-------------0(x16)-2(x16)|

 

G|--------------------------------------|

D|--------------------------------------|

A|2(x24)-4(x8)---------------2~~~~~~~~~-|

E|-------------0(x16)-2(x16)------------|

 

Bridge (3:21)

G|--------------------------------------|

D|--------------------------------------|

A|-2-2----2-2---------------------------|

E|----------------0-0------2-2-2-2-2-2-2|

 

Chorus (3:30):

G|--------------------------|

D|--------------------------|

A|2(x24)-4(x8)--------------|

E|-------------0(x16)-2(x16)|

 

G|--------------------------|

D|--------------------------|

A|2(x24)-4(x8)--------------|

E|-------------0(x16)-2(x16)|

 

G|--------------------------|

D|--------------------------|

A|2(x24)-4(x8)--------------|

E|-------------0(x16)-2(x16)|

 

G|--------------------------------------|

D|--------------------------------------|

A|2(x24)-4(x8)---------------2~~~~~~~~~-|

E|-------------0(x16)-2(x16)------------|

 

 

| / slide up

| \ slide down

| h hammer-on

| p pull-off

| ~ vibrato

| + harmonic

| x Mute note

===============================================================================

Return to my to my Blink 182 Bass Tabs page

The Tablature is Copyright its respective owners.

 

Sign Up For My Newsletter
Subscribe | Unsubscribe

Site Map | Disclaimer | Privacy Policy | Media Kit | Submissions/Corrections

Website © 2000-2014 mattsmusicpage.com. All rights reserved.

Legal & DMCA: Matt's Music Page has been providing lyrics and tabs in a legal way, paying royalties each year to a few organizations. Then, all lyrics and tabs were removed from the site. Now, there's a new owner to the site, which purchased it August 26, 2014, and he is in negotiation to obtain licensing from BMI at the moment. If you have a specific DMCA request -- please do not hesitate to contact me via the contact button on top. I will do my very best to keep this site fully legal.

Get our toolbar!

 

1939 LYRIC THEATRE New York PHOTO
$5.83
1939 LYRIC THEATRE New York PHOTO picture


Star Spangled Banner or Marines Hymn lyrics signed by WWII Charles W. Lindberg
$10.0
Star Spangled Banner or Marines Hymn lyrics signed by WWII Charles W. Lindberg picture


OLD LARGE HISTORIC PHOTO OF THE LYRIC THEATRE, SYDNEY c1930s, WAR BONDS BOOTH
$7.42
OLD LARGE HISTORIC PHOTO OF THE LYRIC THEATRE, SYDNEY c1930s, WAR BONDS BOOTH picture


SONG OF REVOLUTION CARD SET WITH 13 MOST FAVORED COMMUNIST SONGS LYRICS + NOTES
$24.99
SONG OF REVOLUTION CARD SET WITH 13 MOST FAVORED COMMUNIST SONGS LYRICS + NOTES picture


OLD LARGE HISTORIC PHOTO OF THE LYRIC THEATRE, SYDNEY c1930s, WAR LOANS BOOTH
$7.42
OLD LARGE HISTORIC PHOTO OF THE LYRIC THEATRE, SYDNEY c1930s, WAR LOANS BOOTH picture