Your One-Stop Source For
Music Lyrics
Bass and Guitar Tabs
and More...
Music Lyrics Bass and Guitar Tabs

 

The Tabs Are Below

Learn To Read Tab
Chords Handbook
Corrections & Additions
Get Official Tab
Blink 182 tabs @ 911Tabs

 

Artist : Blink 182

Title : Everytime I Look For You

Album : Take Off Your Pants and Jacket

Tabbed by : Mark Yanish

E-mail : m1j0y3korn@aol.com

 

 

Intro

|------------------|

|------------------|

|-5-5-5-5-5-5----|

|------------------|

|-2-2-2-2-2-2----|

|------------------|

 

Verse

|----------------|

|----------------|

|--4----6----9--|

|--4----6----9--| x2

|--2----4----7--|

|----------------|

 

 

Interlude

|----------------------------|

|---7-----7-----7-----------|

|-----8-----8-----8---7-8--|

|-9-----9-----9-----9------| x2

|----------------------------|

|----------------------------|

 

Verse

|----------------|

|----------------|

|--4----6----9--|

|--4----6----9--| x4

|--2----4----7--|

|----------------|

 

 

Interlude

|----------------------------|

|---7-----7-----7-----------|

|-----8-----8-----8---7-8--|

|-9-----9-----9-----9------| x2

|----------------------------|

|----------------------------|

 

Intro

|--------------------------------------------------------|

|--------------------------------------------------------|

|--5-5-5-5-5-5-5-5-5-5-5-5-5-5-5-5---22222222--|

|------------------------------------------22222222--|

|--2-2-2-2-2-2-2-2-2-2-2-2-2-2-2-2---00000000--|

|--------------------------------------------------------|

 

 

Interlude

|----------------------------|

|---7-----7-----7-----------|

|-----8-----8-----8---7-8--|

|-9-----9-----9-----9------| x2

|----------------------------|

|----------------------------|

 

 

Verse

|-----------------|

|-----------------|

|--4----6----9---|

|--4----6----9---| x4

|--2----4----7---|

|-----------------|

 

 

Interlude

|----------------------------|

|---7-----7-----7-----------|

|-----8-----8-----8---7-8--|

|-9-----9-----9-----9------| x2

|----------------------------|

|----------------------------|

 

Intro

|--------------------------------------------------------|

|--------------------------------------------------------|

|--5-5-5-5-5-5-5-5-5-5-5-5-5-5-5-5----22222222--|

|-------------------------------------------22222222--|

|--2-2-2-2-2-2-2-2-2-2-2-2-2-2-2-2----00000000--|

|--------------------------------------------------------|

 

 

Riff 2:

|----------------------------------------------------|

|----------------------------------------------------|

|-5-5-5-5-5--8-8-8-8-8--11-11-11--9-9-9-9-9-|

|----------------------------------------------------| x6

|-2-2-2-2-2--6-6-6-6-6---9--9--9--7-7-7-7-7--|

|----------------------------------------------------|

 

 

Intro

|-----------------------------------------------------------|

|-----------------------------------------------------------|

|-5-5-5-5-5-5-5-5-5-5-5-5-5-5-5-5-5-5-5---222222--|

|-------------------------------------------------222222--|

|-2-2-2-2-2-2-2-2-2-2-2-2-2-2-2-2-2-2-2---000000--|

|-----------------------------------------------------------|

 

 

Return to my to my Blink 182 tabs page

The Tablature is Copyright its respective owners.

 

Sign Up For My Newsletter
Subscribe | Unsubscribe

Site Map | Disclaimer | Privacy Policy | Media Kit | Submissions/Corrections

Website © 2000-2014 mattsmusicpage.com. All rights reserved.

Legal & DMCA: Matt's Music Page has been providing lyrics and tabs in a legal way, paying royalties each year to a few organizations. Then, all lyrics and tabs were removed from the site. Now, there's a new owner to the site, which purchased it August 26, 2014, and he is in negotiation to obtain licensing from BMI at the moment. If you have a specific DMCA request -- please do not hesitate to contact me via the contact button on top. I will do my very best to keep this site fully legal.

Get our toolbar!