Your One-Stop Source For
Music Lyrics
Bass and Guitar Tabs
and More...
Music Lyrics Bass and Guitar Tabs

 

The Tabs Are Below

Learn To Read Tab
Chords Handbook
Corrections & Additions
Get Official Tab
Blink 182 tabs @ 911Tabs

 

Author/Artist: Blink 182

Title: Dysentery Gary

Album: Enema Of The State

Transcribed by: Ryan Dinnage

Email: ryan183@hotmail.com

 

This is the correct tab for Dysentry Gary upto to the little single string solo. If you like i will do another with the rest of the song. Just email me your comments.

 

------------------------------------------------------------------------------

------------------------------------------------------------------------------

------------------------------------------------------------------------------

-4---4---4---0---0---0---5---5---5---4---4---4---0---0---0---------------4----

------------------------------------------------------------------------------

-------------------------------------------------------------3---3---3--------

 

 

------------------------------------------------------------------------------

--------------------------------------------------------7---------------------

-------------------------------------------------7------7---------------------

-4---4-------------------------------------------7------7---------------------

---------0---0---0---4---4---4---4---4---4---0---5------5---------------------

------------------------------------------------------------------------------

 

 

------------------------------------------------------------------------------

------------------------------------------------------------------------------

-7---7--7--7--7--7--7--7--7--7--7--7--7---------------------------------------

-5---5--5--5--5--5--5--5--5--5--5--5--5---5---5--5--5--5--7---7--7--7--7--7---

-5---5--5--5--5--5--5--5--5--5--5--5--5---5---3--3--3--3--5---5--5--5--5--5---

------------------------------------------3---3--3--3--3--5---5--5--5--5--5---

 

 

------------------------------------------------------------------------------

------------------------------------------------------------------------------

------------------------------------------------------------------------------

-7--7---------------7--------------4-------7--------------4-------------------

-5--5-----5---------x--0--0--0--0--5-------x--0--0--0--0--5-------------------

-5--5---------------5----------------------5----------------------------------

PM.-------- PM.--------

 

------------------------------------------------------------------------------

------------------------------------------------------------------------------

------------------------------------------------------------------------------

-5--------------5-----2--------------2--------------2-------------------------

-5--0--0--0--0--5-----2--------------2--------------2-------------------------

-3--------------3-----0--3--3--3--3--0--3--3--3--3--0--3----------------------

PM.--------- PM.--------- PM.---------

 

------------------------------------------------------------------------------

-3--3--3--3--3--3--3--3--3--3--3--3--2--2--2--2-------------------------------

-2--2--2--2--2--2--2--2--0--0--0--0--2--2--2--2--7---7--7--7---7---7--7--7----

-0--0--0--0--0--0--0--0--0--0--0--0--2--2--2--2--7---7--7--7---7---5--5--5----

-------------------------------------0--0--0--0--2---5--5--5---5---5--5--5----

------------------------------------------------------------------------------

 

 

------------------------------------------------------------------------------

------------------------------------------------------------------------------

-7---7--7--7---7---7--7--7---7---7--------------------------------------------

-7---7--7--7---7---7--7--7---7---7---5---5---5---5---5---5--5--5--5--5--------

-5---5--5--5---5---5--5--5---5---5---5---5---5---5---5---5--5--5--5--5--------

-------------------------------------3---3---3---3---3---3--3--3--3--3--------

 

 

-----------------------------------------15---14------------------------------

---------------------------------------------------15-------------------------

--------------------------------------------------------12---12---12----------

-7---7--7--7---7---7--7--7--7--7---7------------------------------------------

-7---7--7--7---7---7--7--7--7--7---7------------------------------------------

-5---5--5--5---5---5--5--5--5--5---5------------------------------------------

 

 

-15---14----------------------------------------------------------------------

-----------15-----------------------------------------------------------------

----------------12---12---12--------------------------------------------------

------------------------------------------------------------------------------

------------------------------------------------------------------------------

-------------------------------3---3--3--3--3--3------------------------------

 

 

 

 

Return to my to my Blink 182 tabs page

The Tablature is Copyright its respective owners.

 

Sign Up For My Newsletter
Subscribe | Unsubscribe

Site Map | Disclaimer | Privacy Policy | Media Kit | Submissions/Corrections

Website © 2000-2014 mattsmusicpage.com. All rights reserved.

Legal & DMCA: Matt's Music Page has been providing lyrics and tabs in a legal way, paying royalties each year to a few organizations. Then, all lyrics and tabs were removed from the site. Now, there's a new owner to the site, which purchased it August 26, 2014, and he is in negotiation to obtain licensing from BMI at the moment. If you have a specific DMCA request -- please do not hesitate to contact me via the contact button on top. I will do my very best to keep this site fully legal.

Get our toolbar!