Your One-Stop Source For
Music Lyrics
Bass and Guitar Tabs
and More...
Music Lyrics Bass and Guitar Tabs

 

The Tabs Are Below

Learn To Read Tab
Chords Handbook
Corrections & Additions
Get Official Tab
Blink 182 tabs @ 911Tabs

 

DUMPWEED

BLINK-182

ENEMA OF THE STATE

Questions & Comments----> vegita1997@earthlink.net

DUMPWEED

Chords Key

Em A B

E----0------------5------------7-----------------------------------------------------------------

A----2------------7------------9-----------------------------------------------------------------

D----2------------7------------9-----------------------------------------------------------------

G----x------------x------------x-----------------------------------------------------------------

B----x------------x------------x-----------------------------------------------------------------

E----x------------x------------x-----------------------------------------------------------------

Intro Riff

E--0------------5---7---0------------5-------------------5---7------------------7----------------

A-----7-------7---9-------7-------7-----9---0-7--------7---9----0-7---------7-9-------------------

D-------6-7-6---------------6-7-6----------------6-7-6--------------6-7-6-9----------------------

G------------------------------------------------------------------------------------------------

B------------------------------------------------------------------------------------------------

E------------------------------------------------------------------------------------------------

Tapping Solo

Pin first finger on 9th fret (D string) and pinky on 14th fret (D string)

E------------------------------------------------------------------------------------------------

A------------------------------------------------------------------------------------------------

D---18-18-18-16-16-16-18-18-18-19-19-19----------------------------------------------------------

G------------------------------------------------------------------------------------------------

B------------------------------------------------------------------------------------------------

E------------------------------------------------------------------------------------------------

Solo Riff

E------------------------------------------------------------------------------------------------

A------------------------------------------------------------------------------------------------

D-------9----9------9-----9----------------------------------------------------------------------

G-----9---11------9------------------------------------------------------------------------------

B---9-----------9-----10-------------------------------------------------------------------------

E------------------------------------------------------------------------------------------------

Song Layout and Lyrics

Intro

Tapping Solo

Verse: (All chords muted)

Em B Em B

It's understood, I said it manyways, I'm too scared to run, I'm too scared to stay

A B A B

I said I'd leave, but I could never leave her, If I did, You know I'd never cheat her

Em B Em B

But this I ask, Is what I want to know, How would you feel, If I would choose to go

A B A B

Another guy, You'd think it'd be unlikely, Another guy, I'd think he'd want to fight me

Intro Riff

Chorus: (Unmuted)

Em B A B

She's a dove, She's a fucking nightmare, Unpredictable, It was my mistake tostay here

Em B A B

On the go, And it's way too late to play, And I need a girl that I can train

Tapping Solo

Verse: (All chords muted)

IntroChorus: (Unmuted)

Verse: (Muted, no lyrics, except for 'Need a girl I can train...haven't got a chance now...)

Solo

 

Return to my to my Blink 182 tabs page

The Tablature is Copyright its respective owners.

 

Sign Up For My Newsletter
Subscribe | Unsubscribe

Site Map | Disclaimer | Privacy Policy | Media Kit | Submissions/Corrections

Website © 2000-2014 mattsmusicpage.com. All rights reserved.

Legal & DMCA: Matt's Music Page has been providing lyrics and tabs in a legal way, paying royalties each year to a few organizations. Then, all lyrics and tabs were removed from the site. Now, there's a new owner to the site, which purchased it August 26, 2014, and he is in negotiation to obtain licensing from BMI at the moment. If you have a specific DMCA request -- please do not hesitate to contact me via the contact button on top. I will do my very best to keep this site fully legal.

Get our toolbar!

 

VINTAGE SORRENTO MUSIC JEWELRY BOX
$45.0
VINTAGE SORRENTO MUSIC JEWELRY BOX picture


VINTAGE LACQUERED MUSIC BOX JAPAN
$25.99
VINTAGE LACQUERED MUSIC BOX JAPAN picture


Vintage Kehlsteinhaus Bavaria Germany Colorscope Cow Bell View Master Music Box
$8.99
Vintage Kehlsteinhaus Bavaria Germany Colorscope Cow Bell View Master Music Box picture


VINTAGE SCHMIDT Signed Collectible Musical Turning Clown
$9.99
VINTAGE  SCHMIDT Signed Collectible Musical Turning Clown picture


Vintage - Linen - Postcard - Stage - Radio City Music Hall - New York City
$3.75
Vintage - Linen - Postcard - Stage - Radio City Music Hall - New York City   picture