Your One-Stop Source For
Music Lyrics
Bass and Guitar Tabs
and More...
Music Lyrics Bass and Guitar Tabs

 

The Tabs Are Below

Learn To Read Tab
Chords Handbook
Corrections & Additions
Get Official Tab
Blink 182 tabs @ 911Tabs

 

ROLLER COASTER - Blink-182

-------------------------------------------------------------------------------

 

Tabbed by Aurelien : Travisgrohl@aol.com

Timing : 4/4

 

Intro

Cym |X---X---X---X---|X---X---X---X---|X---X---X---X---|X-------------#-|

T |----------------|----------------|----------------|----------o-----|

S |o-----o-----o---|o-----o-----o---|o---o-------o---|o-ooo-o-o-------|

FT |----------------|----------------|----------------|------------o---|

B |--0-------0---0-|--0-------0---0-|--0-------------|----------------|

 

Cym |X---------------|----------------|

B |0---------------|----------------|

 

Chorus 1

___13 times___

/ \

Rd |----------------|

 

Rd |F---------------|----------xxx---|x---x---x---x---|x-x-x-x-x-x-x-x-|

 

Pt 1

____________3 times____________

/ \

Cym |X---X---X---X---|X---X---X---X---|X---X---X---X---|X---X-----------|

HH |----------------|--o-=-----------|----------------|----------------|

T |----------------|----------------|----------------|----------o-----|

S |--------o---o---|----------o-----|--------o---o---|--o-----o-------|

FT |----------------|----------------|----------------|------------o-o-|

B |0-----0-------0-|----0-------0---|0-----0-------0-|------0---------|

 

____________3 times____________

/ \

Cym |X---X---X---X---|X---X---X---X---|X---X---X---X---|X-----------X---|

HH |----------------|--o-=-----------|----------------|----------------|

T |----------------|----------------|----------------|----o-----------|

S |--------o---o---|----------o-----|--------o---o---|--o---------o---|

FT |----------------|----------------|----------------|------o-o-------|

B |0-----0-------0-|----0-------0---|0-----0-------0-|----------0-----|

 

Verse 1

___2 times____ ________________ ________________

/ \|1. |2. |

Cym |X---------------|----------------|----------------|----------------|

HH |----@---@---@---|@---@---@---@---|@---@---@---@---|@---@---@---@---|

S |----o-------o---|----o-------o---|----o-------o-o-|----o-------o---|

B |0-------0-0-----|0-------0-0-----|0-------0-0-----|0-------0-0-----|

 

____________4 times____________

/ \

Cym |X---------------|#---------------|

Rd |----x-----------|----x---x---x---|

T |----------o-----|----------------|

S |----o---o-------|o-----o-----o---|

FT |------------o---|----------------|

B |0-------------0-|--0-------0-----|

 

Pt 2

____________3 times____________

/ \

Cym |X---X---X---X---|X---X---X---X---|X---X---X---X---|X-----------X---|

HH |----------------|--o-=-----------|----------------|----------------|

T |----------------|----------------|----------------|----o-----------|

S |--------o---o---|----------o-----|--------o---o---|--o---------o---|

FT |----------------|----------------|----------------|------o-o-------|

B |0-----0-------0-|----0-------0---|0-----0-------0-|----------0-----|

 

Repeat verse 1 for verse 2

 

Chorus 2

Cym |X---------------|----------------|----------------|----------------|

B |0---------------|----------------|----------------|----------------|

 

____________6 times____________

/ \

HH |o-=-x---x---x---|x---x---x---x---|

S |--------o-----o-|--------o-------|

B |0-----0-----0---|--0---0-----0---|

 

Interlude

____________2 times____________

/ \

Cym |X---------------|----------------|----------------|----------------|

Rd |----------------|------------B---|----------------|------------B---|

HH |----------------|--------------o-|=---------------|--------------o-|

T |--o---o---o-----|o-o-o-o---o-----|o-o---o---o-----|o-o-o-o---o-----|

S |--------o-----o-|--------o-------|--------o-----o-|--------o-------|

FT |----o-------o---|----------------|----o-------o---|----------------|

B |0---------------|----------------|----------------|----------------|

_________________________________ _________________________________

|1. |2. |

Rd |----------------|----------------|----------------|------------B---|

HH |=---------------|----------------|=---------------|--------------o-|

T |o-o---o---o-----|o-o-o-o---o-----|o-o---o---o-----|o-o-o-o---o-----|

S |--------o-----o-|--------o---o-o-|--------o-----o-|--------o-------|

FT |----o-------o---|----------------|----o-------o---|----------------|

B |----------------|----------------|----------------|----------------|

________________ ________________

|3. | |

HH |=---------------|----------------|

T |o-o---o---o-----|o-o-o-o---o---o-|

S |--------o-----o-|--------o---o---|

FT |----o-------o---|----------------|

B |----------------|----------------|

 

Repeat verse 1 for verse 3

 

Chorus 3

___6 times____ ________________ ________________

/ \|1. |2. |

Cym |X---X---X---X---|X---X---X---X---|X---------------|X---X---X---X---|

S |----o-------o---|----o-------o---|--ooo-o-o-o-o-o-|----o-------o---|

B |0-------0-0-----|0-------0-0-----|0---------------|0-------0-0-----|

 

Cym |X---------------|----------------|----------------|----------------|

S |----g---g---g---|g---o---o---o---|o---o---o---O---|O---O---O---O---|

FT |----g---g---g---|g---o---o---o---|o---o---o---O---|O---O---O---O---|

B |0---------------|----------------|----------------|----------------|

 

Cym |X---------------|

B |0---------------|

 

Return to my Blink 182 drum tabs page

The Tablature is Copyright its respective owners.

Sign Up For My Newsletter
Subscribe | Unsubscribe

Site Map | Disclaimer | Privacy Policy | Media Kit | Submissions/Corrections

Website © 2000-2014 mattsmusicpage.com. All rights reserved.

Legal & DMCA: Matt's Music Page has been providing lyrics and tabs in a legal way, paying royalties each year to a few organizations. Then, all lyrics and tabs were removed from the site. Now, there's a new owner to the site, which purchased it August 26, 2014, and he is in negotiation to obtain licensing from BMI at the moment. If you have a specific DMCA request -- please do not hesitate to contact me via the contact button on top. I will do my very best to keep this site fully legal.

Get our toolbar!