Your One-Stop Source For
Music Lyrics
Bass and Guitar Tabs
and More...
>Music Lyrics Bass and Guitar Tabs

 

The Tabs Are Below

Learn To Read Tab
Chords Handbook
Corrections & Additions
Get Official Tab
Blink 182 tabs @ 911Tabs

 

Blink 182

Don't Leave Me

Tabbed by Nicholas Mazerolle

nmazerolle@hotmail.com

 

Standard Tuning

 

Intro

-----------------------------------------

-----------------------------------------

----------xxxx7777-xxxx4444-7777-9999----

-xxxx7777-xxxx7777-xxxx4444-7777-9999----

-xxxx7777-xxxx5555-xxxx2222-5555-7777----

-xxxx5555--------------------------------

 

Verses (let ring)

-----------------

-----------------

-----------------

----7~~~~~~~~----

----7~~~~~~~~----

----5~~~~~~~~----

 

Chorus

-----------------------------------------

-----------------------------------------

-xxxx-2222-4444-7777-9999----------------

-xxxx-2222-4444-7777-9999----------------

-xxxx-0000-2222-5555-7777----------------

-----------------------------------------

 

Interlude

------------------------

------------------------

-----7-----7---7--------

------------------------

-5-5---5-5---5----------

 

Return to my to my Blink 182 tabs page

The Tablature is Copyright its respective owners.

 

Sign Up For My Newsletter
Subscribe | Unsubscribe

Site Map | Disclaimer | Privacy Policy | Media Kit | Submissions/Corrections

Website © 2000-2014 mattsmusicpage.com. All rights reserved.

Legal & DMCA: Matt's Music Page has been providing lyrics and tabs in a legal way, paying royalties each year to a few organizations. Then, all lyrics and tabs were removed from the site. Now, there's a new owner to the site, which purchased it August 26, 2014, and he is in negotiation to obtain licensing from BMI at the moment. If you have a specific DMCA request -- please do not hesitate to contact me via the contact button on top. I will do my very best to keep this site fully legal.

Get our toolbar!

 

Willits Musical Carolsel group 2 #1528 single horse ceramic top & horse move VTG
$13.99
Willits Musical Carolsel group 2 #1528 single horse ceramic top & horse move VTG picture


Vintage Cherished Teddies Musical Snowglobe Enesco "O Tannebaum" 1997
$9.99
Vintage Cherished Teddies Musical Snowglobe Enesco


Vintage Deco musical Silver and blue Vanity powder box Large
$15.0
Vintage Deco  musical Silver and blue Vanity powder  box Large picture


SPANIEL MOTHER DOG & HER PUPPY~VTG MUSIC BOX PLAYS "ARE YOU LONESOME TONITE"
$4.99
 SPANIEL MOTHER DOG & HER PUPPY~VTG MUSIC BOX PLAYS


Vintage Made In Japan Walt Disney Mickey Mouse w/ Piano Music Box (T2B15)
$75.0
Vintage Made In Japan Walt Disney Mickey Mouse w/ Piano Music Box (T2B15) picture