Your One-Stop Source For
Music Lyrics
Bass and Guitar Tabs
and More...
Music Lyrics Bass and Guitar Tabs

 

The Tabs Are Below

Learn To Read Tab
Chords Handbook
Corrections & Additions
Get Official Tab
Blink 182 tabs @ 911Tabs

 

HAPPY HOLIDAYS YOU BASTARD - Blink-182

-------------------------------------------------------------------------------

 

Tabbed by Aurelien : Travisgrohl@aol.com

Timing : 4/4

 

First part

Cym |X---------------|----------------|X---------------|----------------|

HH |----x---x---x---|----------------|----x---x---x---|----------------|

T |----------------|--------------oo|----------------|----------------|

S |--o---o---o---o-|ooo-o-ooo-o-oo--|--o---o---o---o-|oooooooooooooooo|

FT |----------------|----------------|----------------|----------------|

B |0---00--0---00--|----------------|0---00--0---00--|----------------|

 

Cym |X---------------|X---------------|X---------------|--------#--#--#-|

Rd |----------------|------B-B-------|----------------|----------------|

HH |----x---@-------|----------------|----x---x-------|----------------|

Rd |----------------|----------------|----------------|----------------|

S |--o---o-----oooo|--o---o-----oooo|--o---o---o-----|o---------------|

FT |----------------|----------------|------------ooo-|----------------|

B |0---00--0-------|0---00--0-------|0---00--0------0|--------0--0--0-|

 

Cym |X---------------|----------------|----------------|----------------|

Rd |----------------|----------------|----------------|--------B-------|

FT |----------------|----------------|----------------|--------o-------|

HH |----x---x---x---|x---x---x---x---|x---x---x---x---|x---x-----------|

S |--o---o---o---o-|--o---o---o---o-|--o---o---o---o-|--o---o---o-o-o-|

FT |----------------|----------------|----------------|----------o-o-o-|

B |0---00--0---00--|0---00--0---00--|0---00--0---00--|0---00----------|

 

Cym |X---------------|----------------|

HH |----x---x---x---|x-------@-------|

T |----------------|----------------|

S |--o---o---o---o-|--oooooo--oooooo|

FT |----------------|----------------|

B |0---00--0---00--|0-------0-------|

 

Repeat first part for second part (last mesure is different)

 

Cym |----------------|

HH |x-----@-@-------|

T |------------oo--|

S |--oooo----oo----|

FT |--------------oo|

B |0-----0-0-------|

 

Ending

Cym |X---------------|X---------------|

B |0---------------|0---------------|

 

Return to my Blink 182 drum tabs page

The Tablature is Copyright its respective owners.

Sign Up For My Newsletter
Subscribe | Unsubscribe

Site Map | Disclaimer | Privacy Policy | Media Kit | Submissions/Corrections

Website © 2000-2014 mattsmusicpage.com. All rights reserved.

Legal & DMCA: Matt's Music Page has been providing lyrics and tabs in a legal way, paying royalties each year to a few organizations. Then, all lyrics and tabs were removed from the site. Now, there's a new owner to the site, which purchased it August 26, 2014, and he is in negotiation to obtain licensing from BMI at the moment. If you have a specific DMCA request -- please do not hesitate to contact me via the contact button on top. I will do my very best to keep this site fully legal.

Get our toolbar!

 

Hard Rock Pin Las Vegas 4th of july red white and blue guitar
$5.0
Hard Rock Pin Las Vegas 4th of july red white and blue guitar picture


Hard Rock Pin Hollywood Fl Bell Girl with dice luggage and guitar
$5.0
Hard Rock Pin Hollywood Fl Bell Girl with dice luggage and guitar picture


Hard Rock Pin Las Vegas King of Clubs Guitar rare only 3 lines of info on back
$5.0
Hard Rock Pin Las Vegas King of Clubs Guitar rare only 3 lines of info on back picture


Hard Rock Pin Edmonton guitar pin
$5.0
Hard Rock Pin Edmonton guitar pin picture


Lladro Guitar Boy #4614 - Beautiful Piece of Lladro
$109.0
Lladro Guitar Boy #4614 - Beautiful Piece of Lladro picture