Your One-Stop Source For
Music Lyrics
Bass and Guitar Tabs
and More...
Music Lyrics Bass and Guitar Tabs

 

The Tabs Are Below

Learn To Read Tab
Chords Handbook
Corrections & Additions
Get Official Tab
Blink 182 tabs @ 911Tabs

 

Author/Artist: Blink 182

Title: The Country Song (Feels So Good)

Album: The Mark, Tom And Travis Show : Enema Strikes Back

Transcribed by: Huskers182

Email: FTo2345821@aol.com

 

-|---------------0-------0-|---0-------0-------0-----3-------|----------------

-|-------1-------1-------1-|---1-------1-------1-----1-------|----------------

-|-------0-------0-------0-|---0-------0-------0-----0-------|----------------

-|-------2-------2-------2-|---2-------2-------2-----2-------|----------------

-|---0-2-3---0-2-3---0-2-3-|-3-3---0-3-3---0-3-3---0-3---0-2-|----------------

-|-3-------3-------3-------|-----3-------3-------3-----3-----|----------------

intro main riff

 

-|------------------|---------------------------------------------------------

-|------------------|---------------------------------------------------------

-|------------------|---------------------------------------------------------

-|------------------|-2-2-2-2-2-2-2-2-4-4-4-4-4-4-5---------------------------

-|---0-2---0-2--0-2-|-0-0-0-0-0-0-0-0-2-2-2-2-2-2-3---------------------------

-|-3-----3----3-----|---------------------------------------------------------

verse end riff

 

 

 

Return to my to my Blink 182 tabs page

The Tablature is Copyright its respective owners.

 

Sign Up For My Newsletter
Subscribe | Unsubscribe

Site Map | Disclaimer | Privacy Policy | Media Kit | Submissions/Corrections

Website © 2000-2014 mattsmusicpage.com. All rights reserved.

Legal & DMCA: Matt's Music Page has been providing lyrics and tabs in a legal way, paying royalties each year to a few organizations. Then, all lyrics and tabs were removed from the site. Now, there's a new owner to the site, which purchased it August 26, 2014, and he is in negotiation to obtain licensing from BMI at the moment. If you have a specific DMCA request -- please do not hesitate to contact me via the contact button on top. I will do my very best to keep this site fully legal.

Get our toolbar!