Your One-Stop Source For
Music Lyrics
Bass and Guitar Tabs
and More...
>Music Lyrics Bass and Guitar Tabs

 

The Tabs Are Below

Learn To Read Tab
Chords Handbook
Corrections & Additions
Get Official Tab
Blink 182 tabs @ 911Tabs

 

-------------------------------------------------------------------------

Carousel - Blink 182

-------------------------------------------------------------------------

 

By: Rustyboy0@aol.com

 

Play this 4 times.

e|-0-4-5-7-5-4--0-2-4-5-4-2------------------------------------------|

B|-------------------------------------------------------------------|

G|-------------------------------------------------------------------|

D|-------------------------------------------------------------------|

A|-------------------------------------------------------------------|

E|-------------------------------------------------------------------|

 

This part on is correct so i got it from the tab already inside the

punk guitar archive. Play this twice. Make sure to hit this one by

one I couldn't get the spacing sorry.

E--------------------------------------------------------------------|

B--------------------------------------------------------------------|

G--9-9-9-9-9-9-9-9-9-9-9-9-9-9-9-------------------------------------|

D-----------------6-6-6-6-7-7-7-7------------------------------------|

A-7-7-7-7-9-9-9-9----------------------------------------------------|

E--------------------------------------------------------------------|

 

Play the chours four times then go back to the begging.

e|-------------------------------------------------------------------|

B|-------------------------------------------------------------------|

G|-------------------------------------------------------------------|

D|--4----7--2--9-----------------------------------------------------|

A|--4----7--2--9-----------------------------------------------------|

E|--2----5--0--7-----------------------------------------------------|

 

On the second time around after the chours play this set twice

e|-------------------------------------------------------------------|

B|-------------------------------------------------------------------|

G|--9----------------------------------------------------------------|

D|--9---9--11--7-----------------------------------------------------|

A|--7---9--11--7-----------------------------------------------------|

E|------7---9--5-----------------------------------------------------|

 

now play this like 28 times then go back to the open verse and play

that eight times.

e|-------------------------------------------------------------------|

B|-------------------------------------------------------------------|

G|---9---------------Finish with this->9-----------------------------|

D|---9---------------------------------9-----------------------------|

A|---7---------------------------------7-----------------------------|

E|-------------------------------------------------------------------|

 

======================================================================

 

Return to my to my Blink 182 tabs page

The Tablature is Copyright its respective owners.

 

Sign Up For My Newsletter
Subscribe | Unsubscribe

Site Map | Disclaimer | Privacy Policy | Media Kit | Submissions/Corrections

Website © 2000-2014 mattsmusicpage.com. All rights reserved.

Legal & DMCA: Matt's Music Page has been providing lyrics and tabs in a legal way, paying royalties each year to a few organizations. Then, all lyrics and tabs were removed from the site. Now, there's a new owner to the site, which purchased it August 26, 2014, and he is in negotiation to obtain licensing from BMI at the moment. If you have a specific DMCA request -- please do not hesitate to contact me via the contact button on top. I will do my very best to keep this site fully legal.

Get our toolbar!

 

Christmas~Little Girl~Toys~Court Jester Noise Maker~Horse~Drums~EMB~Gottschalk
$5.49
Christmas~Little Girl~Toys~Court Jester Noise Maker~Horse~Drums~EMB~Gottschalk picture


Vintage Durham Industries Drum Playing Clown - VGC 1975
$18.88
Vintage Durham Industries Drum Playing Clown - VGC 1975 picture


VINTAGE MINI FIGURAL SOLID PERFUME ORIENTAL DRUM 2,6 CM H.
$65.0
VINTAGE MINI FIGURAL SOLID PERFUME ORIENTAL DRUM 2,6 CM H. picture


3 Rare 1950's Felt & Mercury Glass Christma Ornaments Drummer Boy & Drums Japan
$26.99
3 Rare 1950's Felt & Mercury Glass Christma Ornaments Drummer Boy & Drums Japan picture


Rare Antique Solid Brass Mouse on Box Present / drum - Drummer mouse
$12.99
Rare Antique Solid Brass  Mouse on Box Present / drum - Drummer mouse  picture