Your One-Stop Source For
Music Lyrics
Bass and Guitar Tabs
and More...
Music Lyrics Bass and Guitar Tabs

 

The Tabs Are Below

Learn To Read Tab
Chords Handbook
Corrections & Additions
Get Official Tab
Blink 182 tabs @ 911Tabs

 

Album: Buddah, Cheshire Cat

 

Tuning: Standard

 

Intro:

G|----5---5--5-----/10---10---10----5---5--5-----/10---10----10--------------|

D|-33---33--3---/88----88----8---33---33--3---/88----88----88----------------|

A|---------------------------------------------------------------------------|

E|---------------------------------------------------------------------------|

 

Cont:

G|----5---5---5----/10----10--10-------/12------12---12----------------------|

D|-33---33--3---/88----88----8---/10-10---10-10----10------------------------|

A|---------------------------------------------------------------------------|

E|---------------------------------------------------------------------------|

 

Cont:

G|------3333-0000-3333------3333-0000-3333----------33333333---------33333333|

D|-3333----------------3333----------------33333333----------3333333---------|

A|---------------------------------------------------------------------------|

E|---------------------------------------------------------------------------|

 

Cont:

G|------3333-0000-5555------3333-0000-5555--------|

D|-3333----------------3333-----------------------|

A|------------------------------------------------|

E|------------------------------------------------|

 

Verse:

G|----3>------------------------------------------|

D|-3>---------------------------------------------|

A|------------------------------------------------|

E|------------------------------------------------|

 

Chorus:

G|------3333-0000-5555------3333-0000-5555--------|

D|-3333----------------3333-----------------------|

A|------------------------------------------------|

E|------------------------------------------------|

 

 

By: Mooga

 

Return to my to my Blink 182 tabs page

The Tablature is Copyright its respective owners.

 

Sign Up For My Newsletter
Subscribe | Unsubscribe

Site Map | Disclaimer | Privacy Policy | Media Kit | Submissions/Corrections

Website © 2000-2014 mattsmusicpage.com. All rights reserved.

Legal & DMCA: Matt's Music Page has been providing lyrics and tabs in a legal way, paying royalties each year to a few organizations. Then, all lyrics and tabs were removed from the site. Now, there's a new owner to the site, which purchased it August 26, 2014, and he is in negotiation to obtain licensing from BMI at the moment. If you have a specific DMCA request -- please do not hesitate to contact me via the contact button on top. I will do my very best to keep this site fully legal.

Get our toolbar!