Your One-Stop Source For
Music Lyrics
Bass and Guitar Tabs
and More...
Music Lyrics Bass and Guitar Tabs

 

The Tabs Are Below

Learn To Read Tab
Chords Handbook
Corrections & Additions
Get Official Tab
Blink 182 tabs @ 911Tabs

 

Song: Mutt

Artist: Blink 182

Album: Enema of the State

Tabbed By: Robert Cooper (Agent19890@Aol.com)

 

Intro

G:------9-----9-----9-----9-----9-----9-----9-----9-------------------------------

D:---77----77----77----77----77----77----77----77---------------------------------

A:--------------------------------------------------------------------------------X1

E:--------------------------------------------------------------------------------

 

G:--------------------------------------------------------------------------------

D:-----77-----77----77-----77-----77----77-----77-----77--------------------------

A:---5------5-----5------5------5-----5------5------5-----------------------------X1

E:--------------------------------------------------------------------------------

 

G:--------------------------------------------------------------------------------

D:-------------------------------------------------4444-----2222------------------

A:0000000000--2----4----5555555555------------------------------------------------X2

E:--------------------------------------------------------------------------------

 

Verse "He pauses shaving....."

G:--------------------------------------------------------------------------------

D:----------------------------4444---2222-----------------------------------------

A:--000000000000000---2---4-------------------------------------------------------X3

E:--------------------------------------------------------------------------------

 

Interlude (Starts after the singing stops, very fast, After R play X2)

G:-----------------------------R-------------------------------------------------

D:------------------222222222--R-----2H4P2------2H4P2---------44-----------------

A:---55555555------------------R-00----------00------------22--------505-777-----

E:-----------------------------R-------------------------------------------------

 

Chorus "She's open waiting for more...." (this is fast)

G:-------------------------------------------------------------------------------

D:------2H4P2----------2H4P2---------44------------------------------------------

A:--00------------00--------------22--------505-777------------------------------X4

E:-------------------------------------------------------------------------------

 

Bridge

G:-------------------------------------------------------------------------------

D:-------------------------------------------------------------------------------

A:-00---22-55-44-00--------------------------------------------------------------X2

E:-------------------------------------------------------------------------------

After the bridge it goes back into the chorus play that a few times

 

 

Return to my to my Blink 182 tabs page

The Tablature is Copyright its respective owners.

 

Sign Up For My Newsletter
Subscribe | Unsubscribe

Site Map | Disclaimer | Privacy Policy | Media Kit | Submissions/Corrections

Website © 2000-2014 mattsmusicpage.com. All rights reserved.

Legal & DMCA: Matt's Music Page has been providing lyrics and tabs in a legal way, paying royalties each year to a few organizations. Then, all lyrics and tabs were removed from the site. Now, there's a new owner to the site, which purchased it August 26, 2014, and he is in negotiation to obtain licensing from BMI at the moment. If you have a specific DMCA request -- please do not hesitate to contact me via the contact button on top. I will do my very best to keep this site fully legal.

Get our toolbar!