Your One-Stop Source For
Music Lyrics
Bass and Guitar Tabs
and More...
Music Lyrics Bass and Guitar Tabs

 

The Tabs Are Below

Learn To Read Tab
Chords Handbook
Corrections & Additions
Get Official Tab
Blink 182 tabs @ 911Tabs

 

song title: josie [bass]

album: "Dude Ranch"

tabbed by: Ryan Gleason

e-mail: rmg_three@yahoo.com

 

you are going to have to look at the tab for guitar on this bass tab.

after the chord "B5" is played 5 times you play this intro.

*not 100% sure on strumming-listen to song

 

 

g|--------------------------------------------------------------

d|--------------------------------------------------------------

a|--------------------------------------------------------------

e|-2-2-2-2--4-4-4-4--0-0-0-0-0-0--2-2-2-2--4-4-4-4--

^continue below-do not pause

g|----------------------------------------------------------------------

d|----------------------------------------------------------------------

a|----------------------------------------------------------------------

e|-0-0-0-0-0-0--2-2-2-2--4-4-4-4--4-4-4-4--0-0-0-0-0-0

^again-do not pause

g|-----------------------------------------

d|-----------------------------------------

a|-----------------------------------------

e|-2-2-2-2--4-4-4-4--0-0-0-0-0-0

 

Chords:

 

B5 C#5 E5 Em F#5 G#5

|-------------------------------------------------------|

|-------------------------------------------------------|

|-----2-------4-------7-------------------------------|

|----------------------------0-------2-------4--------|

 

follow the lyrics in the guitar tab page--

the chord names are the same, just follow along

 

 

Return to my to my Blink 182 tabs page

The Tablature is Copyright its respective owners.

 

Sign Up For My Newsletter
Subscribe | Unsubscribe

Site Map | Disclaimer | Privacy Policy | Media Kit | Submissions/Corrections

Website © 2000-2014 mattsmusicpage.com. All rights reserved.

Legal & DMCA: Matt's Music Page has been providing lyrics and tabs in a legal way, paying royalties each year to a few organizations. Then, all lyrics and tabs were removed from the site. Now, there's a new owner to the site, which purchased it August 26, 2014, and he is in negotiation to obtain licensing from BMI at the moment. If you have a specific DMCA request -- please do not hesitate to contact me via the contact button on top. I will do my very best to keep this site fully legal.

Get our toolbar!