Your One-Stop Source For
Music Lyrics
Bass and Guitar Tabs
and More...
Music Lyrics Bass and Guitar Tabs

 

The Tabs Are Below

Learn To Read Tab
Chords Handbook
Corrections & Additions
Get Official Tab
Blink 182 tabs @ 911Tabs

 

Song: the girl next door

 

Band: blink182

 

Album:buhdda

 

tabbed by: mark,13, of social impedance

 

 

 

 

 

intro

 

 

 

G:---------------------------------------------------------------

 

D:---------------------------------------------------------------

 

A:---------2222-------3333-----------------------------------------------

 

E:-3333--------0000------------------------------------------------------

 

 

 

during words( play intro during chorus)

 

 

 

G:---------------------------------------------------------------

 

D:---------------------------------------------------------------

 

A:----------------22222222-------------33333333-------------------------------

 

---

 

E:-33333333---------------0000000---------------------------------------------

 

--

 

 

 

that is pretty much the whole song all eighth anf quarter notes on the E and

 

A strings with the frets 3,2,0. listen for timing any questions e mail me at

 

punk997@aol.com

 

 

 

 

 

{{{{{{{{{{{{{{{{{{{{{{{{{{{{{{{{{{{{{

 

V2

 

}}}}}}}}}}}}}}}}}}}}}}}}}}}}}}}}}}}}}

 

 

 

 

 

 

 

The Girl Next Door

 

Blink 182

 

Buddha

 

Tab by James Copley (jcopley18@hotmail.com)

 

Standard tuning

 

 

 

Verse

 

G|------------------------------------------------------------|

 

D|------------------------------------------------------------|

 

A|-----------------2-2-2-2-2-2-2-2-----------------3--3--3--3-|

 

E|-3-3-3-3-3-3-3-3-----------------0-0-0-0-0-0-0-0------------|

 

 

 

Chorus

 

G|---------------------------------|

 

D|---------------------------------|

 

A|---------2-2-2-2---------3-3-3-3-|

 

E|-3-3-3-3---------0-0-0-0---------|

 

 

 

some one please send me the following bass tabs off of Buddha,

 

 

 

toast and bannanas

 

TV

 

Carousel

 

Time

 

Strings

 

romeo and rebecca

 

 

 

please, I only want the versions from buddha

 

Return to my to my Blink 182 tabs page

The Tablature is Copyright its respective owners.

 

Sign Up For My Newsletter
Subscribe | Unsubscribe

Site Map | Disclaimer | Privacy Policy | Media Kit | Submissions/Corrections

Website © 2000-2014 mattsmusicpage.com. All rights reserved.

Legal & DMCA: Matt's Music Page has been providing lyrics and tabs in a legal way, paying royalties each year to a few organizations. Then, all lyrics and tabs were removed from the site. Now, there's a new owner to the site, which purchased it August 26, 2014, and he is in negotiation to obtain licensing from BMI at the moment. If you have a specific DMCA request -- please do not hesitate to contact me via the contact button on top. I will do my very best to keep this site fully legal.

Get our toolbar!