Your One-Stop Source For
Music Lyrics
Bass and Guitar Tabs
and More...
Music Lyrics Bass and Guitar Tabs

 

The Tabs Are Below

Learn To Read Tab
Chords Handbook
Corrections & Additions
Get Official Tab
Blink 182 tabs @ 911Tabs

 

Artist: Blink 182

Title : Ben Wah Balls

Tabbed By: Rishesh Singh (XtremeDimon@icqmail.com)

 

 

INTRO:

e|-----------------------------------------------------------

B|-----------------------------------------------------------

G|-----------------------------------------------------------

D|-444444-555555-444444-xx7xx7-444444-xx7xx7-----------------

A|-555555-555555-555555-xx7xx7-555555-xx7xx7-----------------

E|--------333333--------xx5xx5--------xx5xx5-----------------

 

INTRO cont.

e|-15-15-15-14-14-14------------14-14-14-15-15-15------------15-15-15-

B|---------------15-15-15-15-15------------------15-15-15-15-15--------

 

e|-141414------------141414-151515-14-14-15-14--------------

B|--------1515151515---------------------------15-----------

 

G|-777777--------777777---------777777-------------------

D|-777777-555555-777777-444-222-777777-444-222-----555555

A|-555555-555555-555555---------555555-------------555555

E|--------333333--------------------------------PM 333333

 

e|-----------------------------------------------------------

B|-----------------------------------------------------------

G|-----------------------------------------------------------

D|---4---7-5----4---5-4----2---5s4s2p0----5---5s4s2p0--------

A|-5---5------2---2------0---0-------------------------------

E|--------------------------------------3---3----------------

 

VERSE: SKA UPSTROKE

e|-5--7--5--3--

B|-7--7--5--3--

G|-7--8--6--4--

D|-7--9--7--5--

A|-5--9--7--5--

E|----7--5--3--

 

STRUM THESE POWER CHORDS

G|7-4-------------------

D|7-4-7-5---------------

A|5-2-7-5---------------

E|----5-3---------------

 

BREAK RIFF:

G|-7-6-------7s9-6-7

D|-0---7-5-4--------

A|------------------

E|------------------

 

CLEAN ELECTRIC PART:

G|-0-----0----------------2---0----------0-------------------

D|---4-2---4-2-0----4--------------4-------4----2-----5-4-0-2

A|----------------5---5-5---5----2---2-2------0---0-0--------

E|-----------------------------------------------------------

 

CONT.

G|-----------------------------------------------------------

D|---5-----5-4-2-0-------------------------------------------

A|-----------------------------------------------------------

E|-3---3-3---------------------------------------------------

Return to my to my Blink 182 tabs page

The Tablature is Copyright its respective owners.

 

Sign Up For My Newsletter
Subscribe | Unsubscribe

Site Map | Disclaimer | Privacy Policy | Media Kit | Submissions/Corrections

Website © 2000-2014 mattsmusicpage.com. All rights reserved.

Legal & DMCA: Matt's Music Page has been providing lyrics and tabs in a legal way, paying royalties each year to a few organizations. Then, all lyrics and tabs were removed from the site. Now, there's a new owner to the site, which purchased it August 26, 2014, and he is in negotiation to obtain licensing from BMI at the moment. If you have a specific DMCA request -- please do not hesitate to contact me via the contact button on top. I will do my very best to keep this site fully legal.

Get our toolbar!

 

Starbucks You Are Here Coffee Mug/Cup KENTUCKY - Horses, Banjo, Blue, White
$19.99
Starbucks You Are Here Coffee Mug/Cup KENTUCKY - Horses, Banjo, Blue, White picture


KNOWLES ROCKWELL HERITAGE "THE BANJO PLAYER" FIRST EDITION 1989 PLATE COA
$5.99
KNOWLES ROCKWELL HERITAGE


Vintage Postcard 1981 Disney World Banjo Kings Main Street USA 1981 Postmark
$4.99
 Vintage Postcard 1981 Disney World Banjo Kings Main Street USA 1981 Postmark picture


Banjo Barometer With Thermometer Hygrometer 490mm
$84.76
Banjo Barometer With Thermometer Hygrometer 490mm picture


ANTIQUE JAPANESE NIPPON FIGURINE SET OF 3 WOMEN GEISHA PLAYING DRUM BANJO FAN
$24.0
ANTIQUE JAPANESE NIPPON FIGURINE SET OF 3 WOMEN GEISHA PLAYING DRUM BANJO FAN picture