Your One-Stop Source For
Music Lyrics
Bass and Guitar Tabs
and More...
Music Lyrics Bass and Guitar Tabs

 

The Tabs Are Below

Learn To Read Tab
Chords Handbook
Corrections & Additions
Get Official Tab
Blink 182 tabs @ 911Tabs

 

Band: blink 182

Song: Dysentery Gary

Album: Enema of the State

 

>means play as many times as you want

Intro:

G:--------------

D:--------------

A:-5>-----------

E:-----3>---5>--

 

Verse:

G:-----------------------------------------------------------------

D:-----------------------------------------------------------------

A:-5-0-0-0-0-5--5-0-0-0-0-5----------------------------------------

E:---------------------------3-5-5-5-5-3--5-3-3-3-3-5-3-3-3-3-5-3--

 

Pre Chorus:

G:-------------------------------------------------------------------

D:-------------------------5h7-5-------------------------------------

A:-5-5-5-5-5-5-5-5-5-5-5-5-------------------------------------------

E:-------------------------------3-3-3-3-3-3-3-3--5-5-5-5--7-7--9-9--

 

Chorus 1: (He's a player...)

Same as pre chorus

 

Chorus 2:(Life just sucks...)

G:-------------------------------------------------------------------

D:-5-5-5-5-5-5-5-5--7-7-7-7-7-7-7-7----------------------------------

A:----------------------------------5-5-5-5-5-5-5-5------------------

E:--------------------------------------------------7-7-7-7-7-7-7-7--

 

G:-----------------------------------------------------

D:-----------------------------------------------------

A:-----------------------------------------------------

E:-3-3-3-3-3-3-3-3--5-5-5-5-5-5-5-5--7-7-7--9-9-9-10~--

 

Bridge:?

G:---------------

D:--------7-5-7--

A:--5-7-5--------

E:---------------

 

TAB: Matt Nielsen zorg500@hotmail.com

 

Return to my to my Blink 182 tabs page

The Tablature is Copyright its respective owners.

 

Sign Up For My Newsletter
Subscribe | Unsubscribe

Site Map | Disclaimer | Privacy Policy | Media Kit | Submissions/Corrections

Website © 2000-2014 mattsmusicpage.com. All rights reserved.

Legal & DMCA: Matt's Music Page has been providing lyrics and tabs in a legal way, paying royalties each year to a few organizations. Then, all lyrics and tabs were removed from the site. Now, there's a new owner to the site, which purchased it August 26, 2014, and he is in negotiation to obtain licensing from BMI at the moment. If you have a specific DMCA request -- please do not hesitate to contact me via the contact button on top. I will do my very best to keep this site fully legal.

Get our toolbar!