Your One-Stop Source For
Music Lyrics
Bass and Guitar Tabs
and More...
>Music Lyrics Bass and Guitar Tabs

 

The Tabs Are Below

Learn To Read Tab
Chords Handbook
Corrections & Additions
Get Official Tab
Blink 182 tabs @ 911Tabs

Note: This is one of the bonus traks from Take Off Your Pants And Jaket, it is from the pants version

Intro\Verse\Chorus:

G:----------------------------------

D:----------------------------------

A:3333333333333333------------------

E:-----------------33333333-11111111

 

Filler (guitar part)

G:--------------------------

D:--------------------------

A:33333333------------------

E:---------11111111-33333333

 

Bridge:

G:----------------------------------

D:----------------------------------

A:33333--33-3333333-----------------

E:------------------33333333--35--55

 

G:----------------------------------------

D:----------------------------------------

A:-----33333--33--3333333-----------------

E:1111--------------------55555--53--33331

 

 

 

Return to my to my Blink 182 tabs page

The Tablature is Copyright its respective owners.

 

Sign Up For My Newsletter
Subscribe | Unsubscribe

Site Map | Disclaimer | Privacy Policy | Media Kit | Submissions/Corrections

Website © 2000-2014 mattsmusicpage.com. All rights reserved.

Legal & DMCA: Matt's Music Page has been providing lyrics and tabs in a legal way, paying royalties each year to a few organizations. Then, all lyrics and tabs were removed from the site. Now, there's a new owner to the site, which purchased it August 26, 2014, and he is in negotiation to obtain licensing from BMI at the moment. If you have a specific DMCA request -- please do not hesitate to contact me via the contact button on top. I will do my very best to keep this site fully legal.

Get our toolbar!

 

Vtg Original Goldscheider Musical Porcelain Figurine Plays "Blue Danube"
$25.0
Vtg Original Goldscheider Musical Porcelain Figurine Plays


Vintage Olds Brass Sheet Music Holder for Horn or Woodwind Instrument
$17.95
Vintage Olds Brass Sheet Music Holder for Horn or Woodwind Instrument picture


VTG UNUSED SEARS ROEBUCK & CO FULL FLAT SHEET SLEEP MUSIC SNOW WHITE RARE
$15.99
VTG UNUSED SEARS ROEBUCK & CO FULL FLAT SHEET SLEEP MUSIC SNOW WHITE RARE picture


Vintage 1960s Lefton China Umbrella Boy and Girl Music Box 6 1/8" Tall
$24.0
Vintage 1960s Lefton China Umbrella Boy and Girl Music Box 6 1/8


Musical Revolving Christmas Carousel Holiday Treasures Vintage Wind Up
$39.0
Musical Revolving Christmas Carousel Holiday Treasures Vintage Wind Up picture