Your One-Stop Source For
Music Lyrics
Bass and Guitar Tabs
and More...
Music Lyrics Bass and Guitar Tabs

 

The Tabs Are Below

Learn To Read Tab
Chords Handbook
Corrections & Additions
Get Official Tab
Blink 182 tabs @ 911Tabs

 

Artist: Blink 182

Song: Degenrate

Album: Dude Ranch

Tab by: Mike Rancid (Rancid027@aol.com)

 

 

Intro/Verse 1 "Cross the street....":

 

G:---------------------------------------------------------------

D:---------------------------------------------------------------

A:1-1-1/8-8-8/5-5/3-3-3-3-------------------------------

E:---------------------------------------------------------------

 

Verse 1(where guitar kicks in) "Thrown in a police car....":

 

G:---------------------------------------------------------------

D:-------3-3-3-0-0-------------------------------------------

A:1-1-1------------3-3-3-3----------------------------------

E:---------------------------------------------------------------

 

Chorus (fast part) "Don't like hesh, don't like rap...":

 

G:---------------------------------------------------------------

D:-------3-3-3-1-1-1-3-3-3--------------------------------

A:1-1-1--------------------------------------------------------

E:---------------------------------------------------------------

 

There are no other bass changes in the song.

Verse 2 is played the same as Verse 1, and includes the bass/drums Intro.

Between the last two Choruses, the bass/drums Intro is also played.

For the exact timing, ect, play along with the CD.

If you have any questions, feel free to e-mail me.

 

 

Return to my to my Blink 182 tabs page

The Tablature is Copyright its respective owners.

 

Sign Up For My Newsletter
Subscribe | Unsubscribe

Site Map | Disclaimer | Privacy Policy | Media Kit | Submissions/Corrections

Website © 2000-2014 mattsmusicpage.com. All rights reserved.

Legal & DMCA: Matt's Music Page has been providing lyrics and tabs in a legal way, paying royalties each year to a few organizations. Then, all lyrics and tabs were removed from the site. Now, there's a new owner to the site, which purchased it August 26, 2014, and he is in negotiation to obtain licensing from BMI at the moment. If you have a specific DMCA request -- please do not hesitate to contact me via the contact button on top. I will do my very best to keep this site fully legal.

Get our toolbar!