Your One-Stop Source For
Music Lyrics
Bass and Guitar Tabs
and More...
Music Lyrics Bass and Guitar Tabs

 

The Tabs Are Below

Learn To Read Tab
Chords Handbook
Corrections & Additions
Get Official Tab
Blink 182 tabs @ 911Tabs

 

Dammit

 

 

bass tab

By Blink 182.

 

Hey, sure its an over used riff, but it sounds great.

This is the easiest song on the album. But its great for the

bass player to sing along with, go crazy with it.

 

 

Intro is all guitar

 

Verse and Chorus(listen to cd for timing):

 

G:----------------------------------------

D:----------------------------------------

A:--3-3-3-3-------------------------------

E:----------3-3-3-3--5-5-5-5--1-1-1-1-----

 

Slowed down part:

G:----------------------------------------

D:----------------------------------------

A:--3-3/5-5/7-7/9---3-3/5-5/7-7/9---------

E:----------------------------------------

 

 

Tabbed by Jon(bassist for The Panty Raiders)

--------------------------------------------

lunchbox@warwick.net

 

 

 

________________________________________________________________

 

VERSION 2

________________________________________________________________

 

 

Intro/Chorus

 

g-------------------------------

d------------------------------*

a-33-55-7---55-7---55-7-88-77-5*

e---------33-----55-------------

 

Verse

g-------------------

d-------------------

a-3333--------------

e-----3333-5555-1111

 

The slow part

g--------------

d--------------

a-3---5---7-88-

e--------------

 

tabbed by muffin

 

 

Return to my to my Blink 182 tabs page

The Tablature is Copyright its respective owners.

 

Sign Up For My Newsletter
Subscribe | Unsubscribe

Site Map | Disclaimer | Privacy Policy | Media Kit | Submissions/Corrections

Website © 2000-2014 mattsmusicpage.com. All rights reserved.

Legal & DMCA: Matt's Music Page has been providing lyrics and tabs in a legal way, paying royalties each year to a few organizations. Then, all lyrics and tabs were removed from the site. Now, there's a new owner to the site, which purchased it August 26, 2014, and he is in negotiation to obtain licensing from BMI at the moment. If you have a specific DMCA request -- please do not hesitate to contact me via the contact button on top. I will do my very best to keep this site fully legal.

Get our toolbar!