Your One-Stop Source For
Music Lyrics
Bass and Guitar Tabs
and More...
>Music Lyrics Bass and Guitar Tabs

 

The Tabs Are Below

Learn To Read Tab
Chords Handbook
Corrections & Additions
Get Official Tab
Blink 182 tabs @ 911Tabs

 

Band: blink 182

Song: Aliens Exist

Album: Enema of the State

 

The previous tab was tabbed on the wrong strings in some parts

 

Verse:

G:--------------------------------------------------------------------

D:--------------------------------------------------------------------

A:-2-2-2-2-2-2-2-2----------------------------------------------------

E:-----------------2-2-2-2-2-2-2-2--4-4-4-4-4-4-4-4--0-0-0-0-0-0-0-0--

 

G:--------------------------------------------------------------------

D:--------------------------------------------------------------------

A:-2-2-2-2-2-2-2-2--4-4-4-4-4-4-4-4-----------------------------------

E:----------------------------------4-4-4-4-4-4-4-4--0-0-0-0-0-0-0-0--

 

Break in verse and pre verse

G:--------------------------------------------

D:--------------------------------------------

A:-2-2-2-2-2----------------------------------

E:-----------0-0-0-0-0--4-4-4-4-4--0-0-0-0-0--

 

"I'm not like you guys.."

G:--------------

D:--------------

A:---------2~---

E:--2~--0~------

 

Guitar solo part

G:--------------------------------------------------------------------

D:--------------------------------------------------------------------

A:-2-2-2-2-2-2-2-2-2-2-2-2-2-2-2-2--6-6-6-6-6-6-6-6-6-6-6-6-6-6-6-6-6-

E:--------------------------------------------------------------------

 

G:--------------------------------------------------------------------

D:--------------------------------------------------------------------

A:-4-4-4-4-4-4-4-4-4-4-4-4-4-4-4-4--7-7-7-7-7-7-7-7-7-7-7-7-7-7-7-7-7-

E:--------------------------------------------------------------------

 

G:----------------------------------

D:----------------------------------

A:-6-6-6-6-6-6-6-6-6-6-6-6-6-6-6-6--

E:----------------------------------

 

"Dark and scary.."

G:--------------------------------------------------------------------

D:--------------------------------------------------------------------

A:--------------------------------------------------------------------

E:-4-4-4-4-4-4-4-4--2-2-2-2-2-2-2-2--0-0-0-0-0-0-0-0--2-2-2-2-2-2-2-2-

 

Outro:

G:------------

D:------------

A:--------2~--

E:-2~--0~-----

 

TAB: Matt Nielsen zorg500@hotmail.com

 

Return to my to my Blink 182 tabs page

The Tablature is Copyright its respective owners.

 

Sign Up For My Newsletter
Subscribe | Unsubscribe

Site Map | Disclaimer | Privacy Policy | Media Kit | Submissions/Corrections

Website © 2000-2014 mattsmusicpage.com. All rights reserved.

Legal & DMCA: Matt's Music Page has been providing lyrics and tabs in a legal way, paying royalties each year to a few organizations. Then, all lyrics and tabs were removed from the site. Now, there's a new owner to the site, which purchased it August 26, 2014, and he is in negotiation to obtain licensing from BMI at the moment. If you have a specific DMCA request -- please do not hesitate to contact me via the contact button on top. I will do my very best to keep this site fully legal.

Get our toolbar!

 

Antique Lux Heart Beat Waterbury / DeLuxe Wind Up Banjo Wall Clock
$48.89
Antique Lux Heart Beat Waterbury / DeLuxe Wind Up Banjo Wall Clock picture


Frog Banjo & Bass Fiddle Player Salt & Pepper Shakers - Japan
$4.99
Frog Banjo & Bass Fiddle Player Salt & Pepper Shakers - Japan picture


VINTAGE NORCREST #E-402 PLANTER-GIRL WITH BANJO
$22.99
VINTAGE NORCREST #E-402 PLANTER-GIRL WITH BANJO picture


THE BANJO PLAYER BY NORMAN ROCKWELL COLLECTORS PLATE
$10.0
THE BANJO PLAYER BY NORMAN ROCKWELL COLLECTORS PLATE picture


Large Cast Iron 'Banjo' Style Low Pressure Burner Set - heavy Still Burner?
$89.99
Large Cast Iron 'Banjo' Style Low Pressure Burner Set - heavy Still Burner? picture