Your One-Stop Source For
Music Lyrics
Bass and Guitar Tabs
and More...
Music Lyrics Bass and Guitar Tabs

 

The Tabs Are Below

Learn To Read Tab
Chords Handbook
Corrections & Additions
Get Official Tab
Blink 182 tabs @ 911Tabs

 

Author/Artist: blink 182

Title: alone

Album: flyswatter

Transcribed by: nick

Email: justafreakonaleash@hotmail.com

 

order:

1.intro (1st part x7)

2.intro (2nd part x1)

3.intro (1st part x3)

4.intro (3rd part x1)

5.verse

6.chorus

7.intro (x4, 1st part + 3rd part)

8.verse

9.chorus

10.intro

11.verse (slower)

12.chorus

13.end

 

-------------------|----------------------------|-----------------------------

-------------------|----------------------------|-----------------------------

-------------0-----|---------------0-0----------|------------00---------------

---3-3/2-0-----3-2-|---3-3/2-0---------3-2-3-2--|--3-3/2-0-----33-2-----------

-0---------3-------|-0---------3-3--------------|0---------33-----------------

-------------------|----------------------------|-----------------------------

intro/bridge (:30) (:47, 4th repeat in bridge)

 

------------------------------------------------------------------------------

------------------------------------------------------------------------------

-55555555------------55555555-------------------------------------------------

-55555555--77777777--55555555--77777777---------------------------------------

-33333333--77777777--33333333--77777777---------------------------------------

-----------55555555------------55555555---------------------------------------

verse

 

----------------------|-------------------------------------------------------

----------------------|-------------------------------------------------------

-5-10-12-7--5-10-12-7-|-5555--10101010--12121212--7777------------------------

-5-10-10-7--5-10-10-7-|-5555--10101010--10101010--7777------------------------

-3--8-10-5--3--8-10-5-|-3333---8-8-8-8--10101010--5555------------------------

----------------------|-------------------------------------------------------

chorus (x2) (x2)

 

------------------------------------------------------------------------------

------------------------------------------------------------------------------

------------------------------------------------------------------------------

-7----------------------------------------------------------------------------

-7----------------------------------------------------------------------------

-5----------------------------------------------------------------------------

end with one stroke

 

 

 

Return to my to my Blink 182 tabs page

The Tablature is Copyright its respective owners.

 

Sign Up For My Newsletter
Subscribe | Unsubscribe

Site Map | Disclaimer | Privacy Policy | Media Kit | Submissions/Corrections

Website © 2000-2014 mattsmusicpage.com. All rights reserved.

Legal & DMCA: Matt's Music Page has been providing lyrics and tabs in a legal way, paying royalties each year to a few organizations. Then, all lyrics and tabs were removed from the site. Now, there's a new owner to the site, which purchased it August 26, 2014, and he is in negotiation to obtain licensing from BMI at the moment. If you have a specific DMCA request -- please do not hesitate to contact me via the contact button on top. I will do my very best to keep this site fully legal.

Get our toolbar!