Your One-Stop Source For
Music Lyrics
Bass and Guitar Tabs
and More...
Music Lyrics Bass and Guitar Tabs

 

The Tabs Are Below

Learn To Read Tab
Chords Handbook
Corrections & Additions
Get Official Tab
Blink 182 tabs @ 911Tabs

 

Aliens Exist

Blink 182 - Enema of the state

tab by fatbutterbean@hotmail.com

 

Verse (2x) What if people knew.....

e|----------------------------------------------------|

B|----------------------------------------------------|

G|-4-4-4-4--------------------------------------------|

D|-4-4-4-4-4-4-4-4-6-6-6-6-2-2-2-2--------------------|

A|-2-2-2-2-4-4-4-4-6-6-6-6-2-2-2-2--------------------|

E|---------2-2-2-2-4-4-4-4-0-0-0-0--------------------|

 

(2x) I know the CIA would say......

e|----------------------------------------------------|

B|----------------------------------------------------|

G|-4-4-4-4-6-6-6-6------------------------------------|

D|-4-4-4-4-6-6-6-6-6-6-6-6-2-2-2-2--------------------|

A|-2-2-2-2-4-4-4-4-6-6-6-6-2-2-2-2--------------------|

E|-----------------4-4-4-4-0-0-0-0--------------------|

 

(2x)

e|----------------------------------------------------|

B|----------------------------------------------------|

G|-4-4-4-4--------------------------------------------|

D|-4-4-4-4-2-2-2-2-6-6-6-6-2-2-2-2--------------------|

A|-2-2-2-2-2-2-2-2-6-6-6-6-2-2-2-2--------------------|

E|---------0-0-0-0-4-4-4-4-0-0-0-0--------------------|

 

Chorus Up all night long.......

e|----------------------------------------------------|

B|----------------------------------------------------|

G|-4---4-4-4-4-------------4---4-4-4-4----------------|

D|-4---4-4-4-4-4---4-4-4-4-4---4-4-4-4-4---4-4-4-4----|

A|-2---2-2-2-2-4---4-4-4-4-2---2-2-2-2-4---4-4-4-4----|

E|-------------2---2-2-2-2-------------2---2-2-2-2----|

 

pm And I know it must be late.....

e|----------------------------------------------------|

B|----------------------------------------------------|

G|-------------99-99-99-99-------------99-99-99-99----|

D|-66-66-66-66-99-99-99-99-66-66-66-66-99-99-99-99----|

A|-66-66-66-66-77-77-77-77-66-66-66-66-77-77-77-77----|

E|-44-44-44-44-------------44-44-44-44----------------|

 

I'm not like you guys.......

e|----------------------------------------------------|

B|----------------------------------------------------|

G|-----------------4-----------------------4----------|

D|-4---4-4-2---2-2-4-------4---4-4-2---2-2-4----------|

A|-4---4-4-2---2-2-2-------4---4-4-2---2-2-2----------|

E|-2---2-2-0---0-0---------2---2-2-0---0-0------------|

 

Bridge (guitar one)

A|-2-2-2-2-2-2-2-2-2-2-2-2-2-2-2-2-2-2-2-2-2-2-2-2-2-2|

 

(guitar two)

e|---------------------------------0-0-0-0-0-0-0-0-0--------------|

B|-4-4-4-4-4-4-4-4-4-2-2-2-2-2-2-2------------------4-4-4-4-4-4-4-|

G|----------------------------------------------------------------|

D|----------------------------------------------------------------|

A|----------------------------------------------------------------|

E|----------------------------------------------------------------|

 

Dark and scary, ordinary

e|----------------------------------------------------|

B|----------------------------------------------------|

G|-------------------------4-4-4-4--------------------|

D|-6-6-6-6-4-4-4-4-2-2-2-2-4-4-4-4--------------------|

A|-6-6-6-6-4-4-4-4-2-2-2-2-2-2-2-2--------------------|

E|-4-4-4-4-2-2-2-2-0-0-0-0----------------------------|

 

Return to my to my Blink 182 tabs page

The Tablature is Copyright its respective owners.

 

Sign Up For My Newsletter
Subscribe | Unsubscribe

Site Map | Disclaimer | Privacy Policy | Media Kit | Submissions/Corrections

Website © 2000-2014 mattsmusicpage.com. All rights reserved.

Legal & DMCA: Matt's Music Page has been providing lyrics and tabs in a legal way, paying royalties each year to a few organizations. Then, all lyrics and tabs were removed from the site. Now, there's a new owner to the site, which purchased it August 26, 2014, and he is in negotiation to obtain licensing from BMI at the moment. If you have a specific DMCA request -- please do not hesitate to contact me via the contact button on top. I will do my very best to keep this site fully legal.

Get our toolbar!

 

Starbucks You Are Here Coffee Mug/Cup KENTUCKY - Horses, Banjo, Blue, White
$19.99
Starbucks You Are Here Coffee Mug/Cup KENTUCKY - Horses, Banjo, Blue, White picture


KNOWLES ROCKWELL HERITAGE "THE BANJO PLAYER" FIRST EDITION 1989 PLATE COA
$5.99
KNOWLES ROCKWELL HERITAGE


Vintage Postcard 1981 Disney World Banjo Kings Main Street USA 1981 Postmark
$4.99
 Vintage Postcard 1981 Disney World Banjo Kings Main Street USA 1981 Postmark picture


Banjo Barometer With Thermometer Hygrometer 490mm
$84.76
Banjo Barometer With Thermometer Hygrometer 490mm picture


ANTIQUE JAPANESE NIPPON FIGURINE SET OF 3 WOMEN GEISHA PLAYING DRUM BANJO FAN
$24.0
ANTIQUE JAPANESE NIPPON FIGURINE SET OF 3 WOMEN GEISHA PLAYING DRUM BANJO FAN picture