Your One-Stop Source For
Music Lyrics
Bass and Guitar Tabs
and More...
Music Lyrics Bass and Guitar Tabs

 

The Tabs Are Below

Learn To Read Tab
Chords Handbook
Corrections & Additions
Get Official Tab
Blink 182 tabs @ 911Tabs

 

WHAT'S MY AGE AGAIN?- Blink 182

tabbed by GOON (gottwald@worldnet.att.net)

CHORDS

F# C# D# B

|--------------|

|--------------|

|----6--8--4---|

|-4--6--8--4---|

|-4--4--6--2---|

|-2------------|

WHAT'S MY AGE AGAIN?

e------------------------------------------------------------|

b----11-----11-----11------11-----11-----11-----11------11---|

D--11--11-11--11-11--11--11--11-11--11-11--11-11--11--11--11-|

G-9----------------------------9-----------------------------|

A--------9----------------------------9----------------------|

E---------------9------11--------------------9------11-------|

G------------------------------------------------------------|

D------------------------------------------------------------|

A------------------------------------------------------------|

E------------------------------------------------------------|

+=+=+=+=+=+=+=+=+=+=+=+=+=+=+=+=+=+=+=+=+=+=+=+=+=+=+=+=+=+=+=+=

e------------------------------------------------------------|

b----11-----11-----11------11-----11-----11-----11------11---|

D--11--11-11--11-11--11--11--11-11--11-11--11-11--11--11--11-|

G-9----------------------------9-----------------------------|

A--------9----------------------------9----------------------|

E---------------9------11--------------------9------11-------|

G------------------------------------------------------------|

D------------------------------------------------------------|

A-222222--------444444446666666222222--------444444446666666-|

E-------22222222---------------------22222222----------------|

+=+=+=+=+=+=+=+=+=+=+=+=+=+=+=+=+=+=+=+=+=+=+=+=+=+=+=+=+=+=+=+=

e------------------------------|

b----11-----11-----11------11--|

D--11--11-11--11-11--11--11--11|

G-9----------------------------|

A--------9---------------------|

E---------------9------11------|

G------------------------------|

D------------------------------|

A-222222--------444444446666666|

E-------22222222---------------|

I took her out, it was friday night, I wore cologne to get the feeling right We started makeing out and she took off my pants,

+=+=+=+=+=+=+=+=+=+=+=+=+=+=+=+=+=+

e------------------------------|

b----11-----11-----11-----11---|

D--11--11-11--11-11--11-11--11-|

G-9----------------------------|

A--------9---------------------|

E---------------9------9-------|

G-------------------------------|

D-------------------------------|

A2222222--------444444444444444-|

E-------22222222----------------|

But then i turned on the tv

+=+=+=+=+=+=+=+=+=+=+=+=+=+=+=+=+=+

e----------------|

b----11-----11---|

D--11--11-11--11-|

G-9------9-------|

A----------------|

E----------------|

G----------------|

D----------------|

A-22222222222222-|

E----------------|

And that's about the time she

+=+=+=+=+=+=+=+=+=+=+

e--------------|

b--------------|

D----66X88x666-|

G-44X66X88x666-|

A-44X44X66x444-|

E-22X----------|

G--------------|

D--------------|

A----444666444-|

E-222----------|

Walked away from me nobody likes you when your Twenty-three and I'm still more amused by TV shows, what the hell is

ADD

+=+=+=+=+=+=+=+=+=

e-----------------|

b-----------------|

D----66X888888666-|

G-44X66X888888666-|

A-44X44X666666444-|

E-22X-------------|

G-----------------|

D-----------------|

A----444666666444-|

E-222-------------|

My friends say I should act my age, whats my age again, whats my age again?

+=+=+=+=+=+=+=+=+=+=+=+=+=+=+=+=+

e------------------------------|

b----11-----11-----11------11--|

D--11--11-11--11-11--11--11--11|

G-9----------------------------|

A--------9---------------------|

E---------------9------11------|

G------------------------------|

D------------------------------|

A-222222--------444444446666666|

E-------22222222---------------|

+=+=+=+=+=+=+=+=+=+=+=+=+=+=+=+=+=+=+

e------------------|

b------------------|

D-4444----66668888-|

G-4444444466668888-|

A-2222444444446666-|

E-----2222---------|

|+-+-+-+p.m+-+-+-+-|

G------------------|

D------------------|

A-2222----44446666-|

E-----2222---------|

And later on, on the drive home, I called her mom from a pay phone I said was the cops, and your husbands in jail,

+=+=+=+=+=+=+=+=+=+=++=+=+=+=+=+=+=+=

e------------------|

b------------------|

D-4444----66666666-|

G-4444444466666666-|

A-2222444444444444-|

E-----2222---------|

|+-+-+-+p.m+-+-+-+-|

G------------------|

D------------------|

A-2222----44444444-|

E-----2222---------|

The state looks down on sodomy

+=+=+=+=+=+=+=+=+=+=+=+=+=+=+=+=+=+=

e----------|

b----------|

D-44444444-|

G-44444444-|

A-22222222-|

E----------|

|+-+p.m-+-+|

G----------|

D----------|

A-22222222-|

E----------|

And that's about the time that bitch

+=+=+=+=+=+=+=

Hung up on me nobody likes you when your Twenty-three and I'm still more amused by Prank phone calls what the Hell is

caller Id My friends say I should act my age, whats my age again, whats my age again?

+=+=+=+=+=+=+=+=+=+=+=+=+=+=+=+=+=+=

e-------------------------------|

b--11-----11-------11-----11----|

G-----11-----11-------11-----11-|

D-9---------------9-------------|

A-------------------------------|

E-------------------------------|

G----------------------------------|

D---8--8-8--6--6-6--4--4-4--6--6-6-|

A-66-66-6-44-44-4-22-22-2-44-44-4--|

E----------------------------------|

+=+=+=+=+=+=+=+=+=+=+=+=+=+=+=+=+=+=

e---------------------------------|

b---------------------------------|

G---------------------------------|

D-----8H9-----8H9-----8H9-----8H9-|

A-999-----999-----999-----999-----|

E---------------------------------|

G----------------------------------|

D---8--8-8--6--6-6--4--4-4--6--6-6-|

A-66-66-6-44-44-4-22-22-2-44-44-4--|

E----------------------------------|

+=+=+=+=+=+=+=+=+=+=+=+=+=+=+=+=+=+=

e----------------------------------|

b----------------------------------|

G----11------11------11------11----|

D--8---8H9-8---8H9-8---8H9-8---8H9-| *2

A-9-9-----9-9-----9-9-----9-9------|

E----------------------------------|

G----------------------------------|

D---8--8-8--6--6-6--4--4-4--6--6-6-|

A-66-66-6-44-44-4-22-22-2-44-44-4--| *2

E----------------------------------|

And that's about the time she

+=+=+=+=+=+=+=+=+=+=+=+=+=+=+=+=+=+=

Walked away from me, nobody likes you when your Twenty-three and you still act like your in Freshmen year what the hell is

wrong with me My friends say I should act my age, whats my age again whats my age again? That's about the time she

e-------------------------|

b----11-----11------11----|

D--11--11-11--11--11--11--|

G-----------------------9-|

A-9-----------------------|

E--------9-------11-------|

e---------------------------|

b---------------------------|

D--------66X-----88X----444-|

G-44X----66X-----8X8----444-|

A-44X----44X-----66X----222-|

E-22X-----------------------|

G------------------------------|

D------------------------------|

A--------444444446666666444444-|

E-2222222----------------------|-

Please stay with me-Broke up with me no one should take themselves so -Please stay with me- Seriously with so many years I

have to -Please stay with me- Fall in line why would you wish that on me?-Please stay with me-

e---------------------------------------|

b----11-----11------11------11-----11---|

D--11--11-11--11--11--11--11--11-11--11-|

G---------------------------------------|

A-9-------------------------------------|

E--------9-------11-----11------9-------|

e---------------------------------------|

b---------------------------------------|

D--------66X-----8888888888888886666666-|

G-44X----66X-----8888888888888886666666-|

A-44X----44X-----6666666666666664444444-|

E-22X-----------------------------------|

G---------------------------------------|

D---------------------------------------|

A--------444444466666666666666664444444-|

E-2222222-------------------------------|

I never want to act my age what's my age again, what's my age again? What's my age again?

+=+=+=+=+=+=+=+=+=+=+=+=+=+=+=+=+=+=

 

Return to my to my Blink 182 tabs page

The Tablature is Copyright its respective owners.

 

Sign Up For My Newsletter
Subscribe | Unsubscribe

Site Map | Disclaimer | Privacy Policy | Media Kit | Submissions/Corrections

Website © 2000-2014 mattsmusicpage.com. All rights reserved.

Legal & DMCA: Matt's Music Page has been providing lyrics and tabs in a legal way, paying royalties each year to a few organizations. Then, all lyrics and tabs were removed from the site. Now, there's a new owner to the site, which purchased it August 26, 2014, and he is in negotiation to obtain licensing from BMI at the moment. If you have a specific DMCA request -- please do not hesitate to contact me via the contact button on top. I will do my very best to keep this site fully legal.

Get our toolbar!