Your One-Stop Source For
Music Lyrics
Bass and Guitar Tabs
and More...
>Music Lyrics Bass and Guitar Tabs

 

The Tabs Are Below

Learn To Read Tab
Chords Handbook
Corrections & Additions
Get Official Tab
Billy Joel tabs @ 911Tabs

 

Its Still Rock & Roll To Me

 

[This was created with TabIt for Windows version 1.3]

 

E :----------------|----------------|----------------|

B :-------1--1-1--1|-1--3-0---------|----------------|

G :----------------|------0----2---2|--0-0--0-3---3--|

D :----------------|------2---------|----------------|

A :-3--------------|----------------|----------------|

E :----------------|----------------|----------------|

 

E :------------------------------- 1|--------------------|

B :------1------------------------ ||--------------------|

G :3-3------2-p0------------------*||---------------0--0-|

D :--------------3----------------*||----------0--0------|

A :------------------------------- ||-----2--2-----------|

E :------------------------------- ||--------------------|

 

E :----------------|----------------|----------------|----------------|

B :1---------------|---------------0|--0------1------|---------------1|

G :2----2----0--2--|----------0--0--|----5--5-2----2-|---0--2---------|

D :2-------2-------|---2-2--2-------|---------0------|-2--------------|

A :0---------------|----------------|----------------|----------------|

E :----------------|----------------|----------------|----------------|

 

E :----------------|----------------|----------------|----------------|

B :--1-1--1-0--0-0-|----------------|----------------|----------------|

G :----------------|-0-3--3-3--3-2--|2-2----2----0---|----------------|

D :----------------|----------------|-----3---------0|-2----0---------|

A :----------------|----------------|----------------|---------3------|

E :----------------|----------------|----------------|----------------|

 

 

Return to my to my Billy Joel tabs page

The Tablature is Copyright its respective owners.

Sign Up For My Newsletter
Subscribe | Unsubscribe

Site Map | Disclaimer | Privacy Policy | Media Kit | Submissions/Corrections

Website © 2000-2014 mattsmusicpage.com. All rights reserved.

Legal & DMCA: Matt's Music Page has been providing lyrics and tabs in a legal way, paying royalties each year to a few organizations. Then, all lyrics and tabs were removed from the site. Now, there's a new owner to the site, which purchased it August 26, 2014, and he is in negotiation to obtain licensing from BMI at the moment. If you have a specific DMCA request -- please do not hesitate to contact me via the contact button on top. I will do my very best to keep this site fully legal.

Get our toolbar!

 

Gibson Guitars - Slash - 1992 - Print Advertisement
$9.95
Gibson Guitars - Slash - 1992 - Print Advertisement picture


Gibson Guitars - Jimi Hendrix- - 1992- Print Advertisement
$9.95
Gibson Guitars - Jimi Hendrix-  - 1992-  Print Advertisement picture


LOT OF MISC Vintage LOOPSTICK ANTENNA GUITAR AMP Radio switch PARTS LOT
$58.0
LOT OF MISC Vintage LOOPSTICK  ANTENNA GUITAR AMP Radio switch PARTS LOT picture


Valentine~Colonial Couple Serenaded By Musician~Guitar~Powdered Hair~Emb~Germany
$6.5
Valentine~Colonial Couple Serenaded By Musician~Guitar~Powdered Hair~Emb~Germany picture


Silver w/CZ "ASHLEY" Charm Metal Keychain w/Ring New in Box, Guitar Pick
$7.95
Silver w/CZ