Your One-Stop Source For
Music Lyrics
Bass and Guitar Tabs
and More...
Music Lyrics Bass and Guitar Tabs

 

The Tabs Are Below

Learn To Read Tab
Chords Handbook
Corrections & Additions
Get Official Tab
Ben Folds tabs @ 911Tabs

Ben Folds Five - Rockin' The Suberbs

Tabbed By: benbassboydude

Email: cybercheese589@hotmail.com

 

Tuning: Standard (E A D G)

 

Enjoy!

 

(A) (2x) (B) (slide) (2x) (2x)

G--------------------------------|--------|-----------------|--------------------------|

D-------------------33333\-------|--------|-----------------|--------------3-33\-------|

A--3--0-333-5---0-3--------------|-5------|-3-5-8--3-5------|-3-03\-----0-----------3--|

E-------------3----------0-1-3---|----1---|------------1----|-------1-3----------1-3---|

 

 

CHORUS: (3x) Repeat A (4x) Repeat Chorus

G-----------------|--------|----------------------|----97----------------------------------

D--0-0000--3------|--0--3--|----------------------|--0---10-7-5----------------------------

A------------3-3--|--------|----------------------|------------7-5--------3-33--33-5-----5-

E-----------------|--------|----------------------|---------------10-9\-------------3-5----

 

 

(2:28) (6x) Repeat B (2x) then A (4x)

G----------------------------------|---97---------------|----------------------------

D------2-3-3-33-5------2-3\-77-55--|-0---10-7-5---------|----------------------------

A-3-33------------3-33-------------|-----------7-5------|----------------------------

E----------------------------------|--------------10-9--|----------------------------

 

Repeat Chorus (4x) (3x)

G--------------------|-------------------------|----------------------------------

D--------------------|-3-33-------5-5-33-33----|--0--3----------------------------

A--------------------|------33-33--3-----------|----------------------------------

E--------------------|-------------------------|----------------------------------

 

And now for the fun part... (4x)

G------------------------------------|---------------------------------------------

D--535353-53---------------------34--|---------------------------------------------

A--------5--53131---------1-3-55-----|---------------------------------------------

E----------------1-----33------------|---------------------------------------------

 

 

Return to my to my Ben Folds Five bass tabs page

The Tablature is Copyright its respective owners.

Sign Up For My Newsletter
Subscribe | Unsubscribe

Site Map | Disclaimer | Privacy Policy | Media Kit | Submissions/Corrections

Website © 2000-2014 mattsmusicpage.com. All rights reserved.

Legal & DMCA: Matt's Music Page has been providing lyrics and tabs in a legal way, paying royalties each year to a few organizations. Then, all lyrics and tabs were removed from the site. Now, there's a new owner to the site, which purchased it August 26, 2014, and he is in negotiation to obtain licensing from BMI at the moment. If you have a specific DMCA request -- please do not hesitate to contact me via the contact button on top. I will do my very best to keep this site fully legal.

Get our toolbar!

 

VINTAGE SORRENTO MUSIC JEWELRY BOX
$45.0
VINTAGE SORRENTO MUSIC JEWELRY BOX picture


VINTAGE LACQUERED MUSIC BOX JAPAN
$25.99
VINTAGE LACQUERED MUSIC BOX JAPAN picture


Vintage Kehlsteinhaus Bavaria Germany Colorscope Cow Bell View Master Music Box
$8.99
Vintage Kehlsteinhaus Bavaria Germany Colorscope Cow Bell View Master Music Box picture


VINTAGE SCHMIDT Signed Collectible Musical Turning Clown
$9.99
VINTAGE  SCHMIDT Signed Collectible Musical Turning Clown picture


Vintage - Linen - Postcard - Stage - Radio City Music Hall - New York City
$3.75
Vintage - Linen - Postcard - Stage - Radio City Music Hall - New York City   picture