Your One-Stop Source For
Music Lyrics
Bass and Guitar Tabs
and More...
>Music Lyrics Bass and Guitar Tabs

 

The Tabs Are Below

Learn To Read Tab
Chords Handbook
Corrections & Additions
Get Official Tab
Ben Folds tabs @ 911Tabs

 

Brick

 

[This was created with TabIt for Windows version 1.3]

 

E :2-----2---0-----|0-----0---------|2-----2---0-----|0-----0---------|

B :--3-----------3-|--3-------3---3-|--3-----------3-|--3-------3---3-|

G :----2-----------|----2-------2---|----2-----------|----2-------2---|

D :0-----0---------|----------------|0-----0---------|----------------|

A :----------------|----------------|----------------|----------------|

E :----------------|3-----3---------|----------------|3-----3---------|

 

E :2-----2---0-----|0-----0---------|2-----2---0-----|--------0------- 1|

B :--3-----------3-|--3-------3---3-|--3---------3---|----3-----3---3- ||

G :----2-----------|----2-------2-2-|----2---------2-|--1---1-----1---*||

D :0-----0---------|----------------|----------------|----------------*||

A :----------------|----------------|2-----2---------|---------------- ||

E :----------------|3-----3---------|----------------|0--------------- ||

 

E :7-----9------7---|9---2-----------|----19-------21-------|

B :--8-----10-----8-|----3-----------|-------20-------22----|

G :7---7-9----9-7---|9-9-2-----------|----19----19-21----21-|

D :-----------------|----0-----------|-----*----------------|

A :-----------------|----------------|----------------------|

E :-----------------|----------------|----------------------|

 

E :19----21----10-------|

B :---20----22-10-------|

G :19----21----11-------|

D :-------------0-------|

A :-------------0-------|

E :---------------------|

 

 

Return to my to my Ben Folds Five tabs page

The Tablature is Copyright its respective owners.

Sign Up For My Newsletter
Subscribe | Unsubscribe

Site Map | Disclaimer | Privacy Policy | Media Kit | Submissions/Corrections

Website © 2000-2014 mattsmusicpage.com. All rights reserved.

Legal & DMCA: Matt's Music Page has been providing lyrics and tabs in a legal way, paying royalties each year to a few organizations. Then, all lyrics and tabs were removed from the site. Now, there's a new owner to the site, which purchased it August 26, 2014, and he is in negotiation to obtain licensing from BMI at the moment. If you have a specific DMCA request -- please do not hesitate to contact me via the contact button on top. I will do my very best to keep this site fully legal.

Get our toolbar!

 

Nice Native American Hand Crafted DRUM Wood Sinew Good Condition
$24.99
Nice Native American Hand Crafted DRUM Wood Sinew Good Condition picture


Unique Skin & Fur Hide Wood Tribal shaker raddle African Drum 7 1/2" tall
$25.0
Unique  Skin & Fur Hide Wood Tribal shaker raddle African Drum 7 1/2


WW2 German MG Ammo Drum.
$200.0
WW2 German MG Ammo Drum. picture


Vintage Animated Musical Clown Play Drums "My Favorite Things" NIB
$4.99
Vintage Animated Musical Clown Play Drums


ORLANDO Florida FIRE Dept Firefighters PIPES & DRUMS T Shirt Medium
$7.35
ORLANDO Florida FIRE Dept Firefighters PIPES & DRUMS  T Shirt Medium picture