Your One-Stop Source For
Music Lyrics
Bass and Guitar Tabs
and More...
Music Lyrics Bass and Guitar Tabs

 

The Tabs Are Below

Learn To Read Tab
Chords Handbook
Corrections & Additions
Get Official Tab
Beatles tabs @ 911Tabs

 

Lucy In The Sky With Diamonds

By The Beatles

Tabbed AltGuitar

Note: This is one of my few text tabs, most of mine are

in TabIt form. (This was extracted from a TabIt

file I wrote)

For More Really Cool, and Accurate Tab Type:

AltGuitar

In file search

 

E :---------12---|-----12--------|----------12---|-----10-9------|

B :----10--------|----------10---|-----10--------|----------10---|

G :9-------------|12-------------|11-------------|10-------------|

D :--------------|---------------|---------------|---------------|

A :--------------|---------------|---------------|---------------|

E :--------------|---------------|---------------|---------------|

 

E :----------12---|-----12--------|----------12---|----10-9------|

B :---------------|----------10---|-----10--------|---------10---|

G :-----14--------|12-------------|11-------------|9-------------|

D :14-------------|-x-------------|-x-------------|x-------------|

A :12-------------|10-------------|-9-------------|8-------------|

E :---------------|---------------|---------------|--------------|

 

E :----------12---|-----12--------|----------12---|8---10---8---|

B :---------------|----------10---|-----10--------|-------------|

G :-----14--------|12-------------|11-------------|-------------|

D :14-------------|-x-------------|-x-------------|-------------|

A :-x-------------|10-------------|-9-------------|8--------8---|

E :12-------------|---------------|---------------|-----8-------|

 

E :10------------|----------12---|-----12--------|----------12---|

B :--------------|---------------|----------10---|-----10--------|

G :--------------|-----14--------|12-------------|11-------------|

D :--------------|14-------------|-x-------------|-x-------------|

A :--------------|-x-------------|10-------------|-9-------------|

E :-8-------10---|12-------------|---------------|---------------|

 

E :----10-9------|----------12---|-----12--------|-9---12----9---|

B :---------10---|---------------|----------10---|10---10---10---|

G :9-------------|-----14--------|12-------------|11-------------|

D :x-------------|14-------------|-x-------------|-0-------------|

A :8-------------|-x-------------|10-------------|---------------|

E :--------------|12-------------|---------------|---------------|

 

E :12----9---12---|10|

B :10---10---10---|10|

G :11-------------|10|

D :-0-------------|-0|

A :---------------|--|

E :---------------|--|

 

 

Return to my to my Beatles Tabs page

The Tabs are Copyright their respective owners.

Sign Up For My Newsletter
Subscribe | Unsubscribe

Site Map | Disclaimer | Privacy Policy | Media Kit | Submissions/Corrections

Website © 2000-2014 mattsmusicpage.com. All rights reserved.

Legal & DMCA: Matt's Music Page has been providing lyrics and tabs in a legal way, paying royalties each year to a few organizations. Then, all lyrics and tabs were removed from the site. Now, there's a new owner to the site, which purchased it August 26, 2014, and he is in negotiation to obtain licensing from BMI at the moment. If you have a specific DMCA request -- please do not hesitate to contact me via the contact button on top. I will do my very best to keep this site fully legal.

Get our toolbar!

 

Hard Rock Pin Las Vegas 4th of july red white and blue guitar
$5.0
Hard Rock Pin Las Vegas 4th of july red white and blue guitar picture


Hard Rock Pin Hollywood Fl Bell Girl with dice luggage and guitar
$5.0
Hard Rock Pin Hollywood Fl Bell Girl with dice luggage and guitar picture


Hard Rock Pin Las Vegas King of Clubs Guitar rare only 3 lines of info on back
$5.0
Hard Rock Pin Las Vegas King of Clubs Guitar rare only 3 lines of info on back picture


Hard Rock Pin Edmonton guitar pin
$5.0
Hard Rock Pin Edmonton guitar pin picture


Lladro Guitar Boy #4614 - Beautiful Piece of Lladro
$109.0
Lladro Guitar Boy #4614 - Beautiful Piece of Lladro picture