Your One-Stop Source For
Music Lyrics
Bass and Guitar Tabs
and More...
Music Lyrics Bass and Guitar Tabs

 

The Tabs Are Below

Learn To Read Tab
Chords Handbook
Corrections & Additions
Get Official Tab
Beatles tabs @ 911Tabs

 

TAB: I'm Down

MUSIC BY: The Beatles (From the Help!/I'm Down Single)

TABBED BY: The Beatles Central Team (jpgr_beatles@yahoo.com)

 

 

Verse 1:

 

G

You tell lies thinkin' I can't see

 

You can't cry cause you're laughin' at me

 

 

Chorus:

 

C

I'm down (I'm really down)

G

I'm down (Down on the ground)

C

I'm down (I'm really down)

D7 G

How can you laugh when you know I'm down?

D7 G

(How can you laugh) when you know I'm down?

 

 

Verse 2:

 

G

Man buys ring woman throws it away

 

Same old thing happen every day

 

 

Chorus:

 

C

I'm down (I'm really down)

G

I'm down (Down on the ground)

C

I'm down (I'm really down)

D7 G

How can you laugh when you know I'm down?

D7 G

(How can you laugh) when you know I'm down?

 

 

Solo:

 

G

E|---------------------------------|--------------------------------

B|---------------------------------|--------------------------------

G|---------------------------------|--------------------------------

D|-----------------3---------------|--------------------------------

A|---------3h5---------5-------1---|---------1-------1---3----------

E|-3-------------------------------|-------------3------------------

^ ^ ^ ^ ^ ^ ^ ^

 

E|---------------------------------|--------------------------------

B|---------------------------------|--------------------------------

G|---------------------------------|--------------------------------

D|-----------------3-----------3---|-5b(7)---5b(7)---(7)r5--3-------

A|---------3h5---------5-----------|--------------------------------

E|-3-------------------------------|--------------------------------

^ ^ ^ ^ ^ ^ ^ ^

 

C

E|---------------------------------|--------------------------------

B|---------------------------------|--------------------------------

G|-----------------------------3---|-5b(7)---5b(7)---(7)r5--3-------

D|-----------------3---------------|--------------------------------

A|---------3h5---------5-----------|--------------------------------

E|-3-------------------------------|--------------------------------

^ ^ ^ ^ ^ ^ ^ ^

G

E|---------------------------------|--------------------------------

B|---------------------------------|-3(vib)----------3(vib)---------

G|-----------------3---------------|--------------------------------

D|-5-------5-----------5-----------|--------------------------------

A|---------------------------------|--------------------------------

E|---------------------------------|--------------------------------

^ ^ ^ ^ ^ ^ ^ ^

D7

E|---------------------------------|--------------------------------

B|-3(vib)----------3(vib)----------|-3(vib)--3(vib)--3(vib)---------

G|---------------------------------|-------------------------3(vib)-

D|---------------------------------|--------------------------------

A|---------------------------------|--------------------------------

E|---------------------------------|--------------------------------

^ ^ ^ ^ ^ ^ ^ ^

G

E|---------------------------------|--------------------------------

B|---------------------------------|--------------------------------

G|---------------------------------|--------------------------------

D|-5-------------------------------|---------3----------------------

A|---------------------1-------3---|-3/5-------------5/3-----1------

E|-----------------3---------------|--------------------------------

^ ^ ^ ^ ^ ^ ^ ^

 

 

Verse 2:

 

G

We're all alone and there's nobody else

 

Still she'll moan "Keep your hands to yourself!"

 

 

Chorus:

 

C

I'm down (I'm really down)

G

I'm down (Down on the ground)

C

I'm down (I'm really down)

D7 G

How can you laugh when you know I'm down?

D7 G

(How can you laugh) when you know I'm down? Woo!

 

 

Instrumental:

 

G

 

C G

 

D7 C G D7

Ah baby you know I'm down

 

 

Coda:

 

G

(I'm really down) I guess I'm down

G

(I'm really down) I'm down on the ground

C

(I'm really down) I'm down

G D7

(I'm really down) Ah baby I'm upside down

C G D7

Oh yeah, yeah, yeah, yeah, yeah, I'm down

 

 

Return to my to my Beatles Tabs page

The Tablature is Copyright its respective owners.

Sign Up For My Newsletter
Subscribe | Unsubscribe

Site Map | Disclaimer | Privacy Policy | Media Kit | Submissions/Corrections

Website © 2000-2014 mattsmusicpage.com. All rights reserved.

Legal & DMCA: Matt's Music Page has been providing lyrics and tabs in a legal way, paying royalties each year to a few organizations. Then, all lyrics and tabs were removed from the site. Now, there's a new owner to the site, which purchased it August 26, 2014, and he is in negotiation to obtain licensing from BMI at the moment. If you have a specific DMCA request -- please do not hesitate to contact me via the contact button on top. I will do my very best to keep this site fully legal.

Get our toolbar!