Your One-Stop Source For
Music Lyrics
Bass and Guitar Tabs
and More...
Music Lyrics Bass and Guitar Tabs

 

The Tabs Are Below

Learn To Read Tab
Chords Handbook
Corrections & Additions
Get Official Tab
Beatles tabs @ 911Tabs

 

ifeel.txt

 

[This was created with TabIt for Windows version 1.3]

 

E :----------------|--------------3-|--2---0---2-----|--------------1-|

B :----------------|----3---3-1-----|------------3---|----1---1-------|

G :----------------|------------2---|----------------|----------3-0---|

D :----------------|0---------------|----------------|----------------|

A :0---------------|----------------|----------------|3---------------|

E :----------------|----------------|----------------|----------------|

 

E :--0-------0-----|----------------|----------------|

B :------3-----1---|--------------1-|--0-------0-----|

G :----------------|----0---0-------|------2-----2-0-|

D :----------------|----------3-0---|----------------|

A :----------------|----------------|----------------|

E :----------------|3---------------|----------------|

 

E :------------------|----------------|------------------|

B :----------------1-|--0-------0-----|----------------1-|

G :------0---0-----0-|--0---2-----2-0-|------0---0-----0-|

D :------0---0-3-0---|----------------|------0---0-3-0---|

A :(2)---2---2-------|----------------|(2)---2---2-------|

E :(3)---3---3-------|----------------|(3)---3---3-------|

 

E :----------------|------------------|----------------|

B :--0-------0-----|----------------1-|--0-------0-----|

G :--0---2-----2-0-|------0---0-----0-|--0---2-----2-0-|

D :----------------|------0---0-3-0---|----------------|

A :----------------|(2)---2---2-------|----------------|

E :----------------|(3)---3---3-------|----------------|

 

E :------(0)-----2---3-|--2---0---2-0-3-|

B :------(0)---3-----3-|--3---3---3-3-3-|

G :--------------------|--------------2-|

D :--------------------|----------------|

A :(2)-----------------|----------------|

E :(3)-----------------|----------------|

 

 

Return to my to my Beatles Tabs page

The Tabs are Copyright their respective owners.

Sign Up For My Newsletter
Subscribe | Unsubscribe

Site Map | Disclaimer | Privacy Policy | Media Kit | Submissions/Corrections

Website © 2000-2014 mattsmusicpage.com. All rights reserved.

Legal & DMCA: Matt's Music Page has been providing lyrics and tabs in a legal way, paying royalties each year to a few organizations. Then, all lyrics and tabs were removed from the site. Now, there's a new owner to the site, which purchased it August 26, 2014, and he is in negotiation to obtain licensing from BMI at the moment. If you have a specific DMCA request -- please do not hesitate to contact me via the contact button on top. I will do my very best to keep this site fully legal.

Get our toolbar!