Your One-Stop Source For
Music Lyrics
Bass and Guitar Tabs
and More...
Music Lyrics Bass and Guitar Tabs

 

The Tabs Are Below

Learn To Read Tab
Chords Handbook
Corrections & Additions
Get Official Tab
Beatles tabs @ 911Tabs

 

Helter, Skelter

By The Beatles

Tabbed By AltGuitar

Note: This is one of my few text tabs, most of mine are

in TabIt form. (This was extracted from a TabIt

file I wrote)

For More Really Cool, and Accurate Tab Type:

AltGuitar

In file search

 

E :0-0-0-0-0-0-0-0-0-0-0-0-0-0-0-0|0-0-0-0-0-0-0-0-0-0-0-0-0-0-0-0|

B :3-3-3-3-3-3-3-3-3-3-3-3-3-3-3-3|3-3-3-3-3-3-3-3-3-3-3-3-3-3-3-3|

G :-------------------------------|-------------------------------|

D :-------------------------------|-------------------------------|

A :-------------------------------|-------------------------------|

E :-------------------------------|-------------------------------|

 

G :-------------------------------|9-9-9-9-9-9-9------------------|

D :-------------------------------|----------------7-7-7-7-7-7-7--|

A :-------------------------------|-------------------------------|

E :-------------------------------|-------------------------------|

 

=============================================================================

 

E :0-0-0-0-0-0-0-0-0-0-0-0-0-0-0-0|0-0-0-0-0-0-0-0-0-0-0-0-0-0-0-0|

B :2-2-2-2-2-2-2-2-2-2-2-2-2-2-2-2|1-1-1-1-1-1-1-1-1-1-1-1-1-1-1-1|

G :-------------------------------|-------------------------------|

D :-------------------------------|-------------------------------|

A :-------------------------------|-------------------------------|

E :-------------------------------|-------------------------------|

 

G :9-9-9-9-9-9-9------------------|9-9-9-9-9-9-9------------------|

D :----------------7-7-7-7-7-7-7--|----------------7-7-7-7-7-7-7--|

A :-------------------------------|-------------------------------|

E :-------------------------------|-------------------------------|

 

=============================================================================

 

E :3-3-3-3-3-3---3---3--|0-0-0-0-0-0-0---0---0-0-0-0|

B :0-0-0-0-0-0---0---0--|3-3-3-3-3-3-3---3---3-3-3-3|

G :0-0-0-0-0-0---0---0--|1-1-1-1-1-1-1---1---1-1-1-1|

D :0-0-0-0-0-0---0---0--|2-2-2-2-2-2-2---2---2-2-2-2|

A :2-2-2-2-2-2---2---2--|2-2-2-2-2-2-2---2---2-2-2-2|

E :3-3-3-3-3-3---3---3--|0-0-0-0-0-0-0---0---0-0-0-0|

 

G :---------------------|---------------------------|

D :---------------------|---------------------------|

A :------------------2-5|7-7-7---7---7-5-7-5-7-5-7--|

E :3-3-3-3-3-3-2-3-5----|---------------------------|

 

=============================================================================

 

E :0---0---0---0---0---0---0---0--|0-0---0-0---0-0---0---0--|

B :1---1---1---1---1---1---1---1--|1-1---1-1---1-1---1---1--|

G :3---3---3---3---3---3---3---3--|3-3---3-3---3-3---3---3--|

D :2---2---2---2---2---2---2---2--|2-2---2-2---2-2---2---2--|

A :2---2---2---2---2---2---2---2--|2-2---2-2---2-2---2---2--|

E :0---0---0---0---0---0---0---0--|0-0---0-0---0-0---0---0--|

 

G :-------------------------------|-------------------------|

D :-------------------------------|-------------------------|

A :7-7-7-7-7-7-7-7-7-7-7-7-7-7-7-5|7-7-7-7-7-7-7-7-7-7-7-7-5|

E :-------------------------------|-------------------------|

 

=============================================================================

 

E :0-0---0---0---0---0---0-0--|

B :1-1---1---1---1---1---1-1--|

G :3-3---3---3---3---3---3-3--|

D :2-2---2---2---2---2---2-2--|

A :2-2---2---2---2---2---2-2--|

E :0-0---0---0---0---0---0-0--|

 

G :---------------------------|

D :---------------------------|

A :7-7-7-7-7-7-5-7-7-7-7-7-7-7|

E :---------------------------|

 

 

 

Return to my to my Beatles Tabs page

The Tabs are Copyright their respective owners.

Sign Up For My Newsletter
Subscribe | Unsubscribe

Site Map | Disclaimer | Privacy Policy | Media Kit | Submissions/Corrections

Website © 2000-2014 mattsmusicpage.com. All rights reserved.

Legal & DMCA: Matt's Music Page has been providing lyrics and tabs in a legal way, paying royalties each year to a few organizations. Then, all lyrics and tabs were removed from the site. Now, there's a new owner to the site, which purchased it August 26, 2014, and he is in negotiation to obtain licensing from BMI at the moment. If you have a specific DMCA request -- please do not hesitate to contact me via the contact button on top. I will do my very best to keep this site fully legal.

Get our toolbar!