Your One-Stop Source For
Music Lyrics
Bass and Guitar Tabs
and More...
Music Lyrics Bass and Guitar Tabs

 

The Tabs Are Below

Learn To Read Tab
Chords Handbook
Corrections & Additions
Get Official Tab
Beatles tabs @ 911Tabs

 

dear.txt

 

[This was created with TabIt for Windows version 1.3]

 

E :12-------------10---------------|8-----------7------------|

B :----------10-------------10-----|----9---8-----------8----|

G :-----11-------------11----------|--0-------------7--------|

D :---0---------0----0----------0--|0---------0---0--------0-|

A :-0--------------0---------------|------------0------------|

D :--------0--------------0--------|------0-----------0------|

 

E :12-------------10---------------|8-----------7-------8-\--|

B :----------10-------------10-\--8|--------8----------------|

G :--------------------------------|-------------------------|

D :--------------------------------|-------------------------|

A :--------------------------------|-------------------------|

D :--------------------------------|-------------------------|

 

=============================================================================

 

E :5-----------3-----------|3------------|2-----------2-----------|

B :--------5-----------5---|--------5----|--------3-----------3---|

G :----6-----------5-------|----5--------|----2-----------2-------|

D :--0-------0---0-------0-|--0--------0-|--0-------0---0-------0-|

A :0-----------0-----------|0------------|0-----------3-----------|

D :------0-----------0-----|------0------|------0-----------0-----|

 

E :5-----------3-----------|3------------|2-----------2-----------|

B :--------5-----------5---|--------5-\--|--------3-----------3---|

G :------------------------|-------------|------------------------|

D :------------------------|-------------|------------------------|

A :------------------------|-------------|------------------------|

D :------------------------|-------------|------------------------|

 

=============================================================================

 

E :2-----------2-----------|

B :--------3-----------3---|

G :----0-----------0-------|

D :--0-------0---0-------0-|

A :2-----------1-----------|

D :------0-----------0-----|

 

E :2-----------2-----------|

B :--------3-----------3---|

G :------------------------|

D :------------------------|

A :------------------------|

D :------------------------|

 

 

 

Return to my to my Beatles Tabs page

The Tabs are Copyright their respective owners.

Sign Up For My Newsletter
Subscribe | Unsubscribe

Site Map | Disclaimer | Privacy Policy | Media Kit | Submissions/Corrections

Website © 2000-2014 mattsmusicpage.com. All rights reserved.

Legal & DMCA: Matt's Music Page has been providing lyrics and tabs in a legal way, paying royalties each year to a few organizations. Then, all lyrics and tabs were removed from the site. Now, there's a new owner to the site, which purchased it August 26, 2014, and he is in negotiation to obtain licensing from BMI at the moment. If you have a specific DMCA request -- please do not hesitate to contact me via the contact button on top. I will do my very best to keep this site fully legal.

Get our toolbar!

 

Hard Rock Pin Las Vegas 4th of july red white and blue guitar
$5.0
Hard Rock Pin Las Vegas 4th of july red white and blue guitar picture


Hard Rock Pin Hollywood Fl Bell Girl with dice luggage and guitar
$5.0
Hard Rock Pin Hollywood Fl Bell Girl with dice luggage and guitar picture


Hard Rock Pin Las Vegas King of Clubs Guitar rare only 3 lines of info on back
$5.0
Hard Rock Pin Las Vegas King of Clubs Guitar rare only 3 lines of info on back picture


Hard Rock Pin Edmonton guitar pin
$5.0
Hard Rock Pin Edmonton guitar pin picture


Lladro Guitar Boy #4614 - Beautiful Piece of Lladro
$109.0
Lladro Guitar Boy #4614 - Beautiful Piece of Lladro picture