Your One-Stop Source For
Music Lyrics
Bass and Guitar Tabs
and More...
Music Lyrics Bass and Guitar Tabs

 

The Tabs Are Below

Learn To Read Tab
Chords Handbook
Corrections & Additions
Get Official Tab
Beatles tabs @ 911Tabs

 

day.txt

 

[This was created with TabIt for Windows version 1.3]

 

E :----------------|----------------|----------------|----------------|

B :----------------|----------------|----------------|----------------|

G :----------------|----------------|----------------|----------------|

D :------------2-0-|----*-4---*-0-2-|*-----------2-0-|----*-4---*-0-2-|

A :----------2-*---|----2-*---2-*---|2-----*---2-*---|----2-*---2-*---|

E :0-----3-4-*-----|----------------|0-----3-4-*-----|----------------|

 

E :| ----------------|---------------- 1|| ----------------|

B :| ----------------|---------------- ||| ----------------|

G :|*----------------|----------------*|||*----------------|

D :|**-----------2-0-|----*-4---*-0-2-*|||**-----------2-0-|

A :| 2-----2-2-2-2-2-|----2-*---2-*--- ||| 2-----2-2-2-2-2-|

E :| 0-----3-4-*-----|---------------- ||| 0-0-0-3-4-*-----|

 

E :---------------- 4|| 2-2-2-2-2-2-2-2- 3|5-5-5-5-5-5-5-5-|

B :---------------- ||| 2-2-2-2-2-2-2-2- ||8-8-8-8-8-8-8-8-|

G :----------------*|||*3-3-3-3-3-3-3-3-*||6-6-6-6-6-6-6-6-|

D :----*-4---*-0-2-*|||*4-4-4-4-4-4-4-4-*||5-5-5-5-5-5-5-5-|

A :----2-2---2-2-2- ||| 4-4-4-4-4-4-4-4- ||7-7-7-7-7-7-7-7-|

E :0-0-*-----0-*--- ||| 2-2-2-2-2-2-2-2- ||5-5-5-5-5-5-5-5-|

 

E :4-4-4-4-4-4-4-4-|| 4- 7|| 7- 7|-----------|----------------|

B :7-7-7-7-7-7-7-7-|| 6- ||| 7- ||-----------|-0---------2---*|

G :5-5-5-5-5-5-5-5-||*6-*|||*8-*||-----------|---2-----*------|

D :4-4-4-4-4-4-4-4-||*6-*|||*9-*||4-4-4-0-1-4|-*-------4-*---4|

A :6-6-6-6-6-6-6-6-|| 4- ||| 9- ||2-2-2-2----|---*------------|

E :4-4-4-4-4-4-4-4-|| 4- ||| 7- ||-----------|----------------|

 

E :----------------|

B :---0-*----------|

G :-2-*-2----------|

D :-*--------------|

A :----------------|

E :----------------|

 

 

Return to my to my Beatles Tabs page

The Tabs are Copyright their respective owners.

Sign Up For My Newsletter
Subscribe | Unsubscribe

Site Map | Disclaimer | Privacy Policy | Media Kit | Submissions/Corrections

Website © 2000-2014 mattsmusicpage.com. All rights reserved.

Legal & DMCA: Matt's Music Page has been providing lyrics and tabs in a legal way, paying royalties each year to a few organizations. Then, all lyrics and tabs were removed from the site. Now, there's a new owner to the site, which purchased it August 26, 2014, and he is in negotiation to obtain licensing from BMI at the moment. If you have a specific DMCA request -- please do not hesitate to contact me via the contact button on top. I will do my very best to keep this site fully legal.

Get our toolbar!

 

VINTAGE SORRENTO MUSIC JEWELRY BOX
$45.0
VINTAGE SORRENTO MUSIC JEWELRY BOX picture


VINTAGE LACQUERED MUSIC BOX JAPAN
$25.99
VINTAGE LACQUERED MUSIC BOX JAPAN picture


Vintage Kehlsteinhaus Bavaria Germany Colorscope Cow Bell View Master Music Box
$8.99
Vintage Kehlsteinhaus Bavaria Germany Colorscope Cow Bell View Master Music Box picture


VINTAGE SCHMIDT Signed Collectible Musical Turning Clown
$9.99
VINTAGE  SCHMIDT Signed Collectible Musical Turning Clown picture


Vintage - Linen - Postcard - Stage - Radio City Music Hall - New York City
$3.75
Vintage - Linen - Postcard - Stage - Radio City Music Hall - New York City   picture