Your One-Stop Source For
Music Lyrics
Bass and Guitar Tabs
and More...
Music Lyrics Bass and Guitar Tabs

 

The Tabs Are Below

Learn To Read Tab
Chords Handbook
Corrections & Additions
Get Official Tab
Beatles tabs @ 911Tabs

 

Your Mother Should Know

The Beatles

Transcribed by Justin Benz

 

 

0:00

G---|-----------14\|--------x-----x-----x--14\|--------x-----x-----x--14\|------

D---|--------------|--7-----------------------|--7-----------------------|------

A---|--------------|--------------------------|--------------------------|------

E---|--------------|--------------------------|--------------------------|------

 

 

 

G---------------14\|--------------14\|--------------14\|-----------------|------

D---7--------------|-----------------|-----------------|-----------------|------

A------------------|--8--------------|--7--------------|--5--------------|------

E------------------|-----------------|-----------------|-----------------|------

 

 

 

G------------------|-----------------|-----------------|-----------------|------

D---5--------------|-----------------|-----------------|-----------------|------

A------------------|--3--------2-----|--0--------------|--5--------------|------

E------------------|-----------------|-----------------|-----------------|------

 

 

0:24

G------------------|--------------------|-----------------|---------------------

D------------------|--------------------|-----------------|--7-----7-----7------

A------------------|--3--------------5--|--7--------------|---------------------

E---3--------------|--------------------|-----------7-----|---------------------

 

 

 

G--------------|--------------------------|--------------------------|----------

D------7\---0--|--3-----3-----3-----3-----|--------------7-----7-----|----------

A--------------|-----------------------3--|--0-----0--------------x--|--5-------

E--------------|--------------------------|--------------------------|----------

 

 

 

G---------------------|--------------------------|-----------------------|------

D------------------7--|--5-----5-----5--3--2-----|-----------------------|------

A---5-----5-----5-----|-----------------------5--|--3-----3--0--2-----2--|------

E---------------------|--------------------------|-----------------------|------

 

 

 

G---------------------------|--------------7--7--------|------------------------

D------------------2--------|--------------------7--6--|--5-----5-----5---------

A---0-----0-----4-----4--0--|--5-----5-----------------|------------------------

E---------------------------|--------------------------|------------------------

 

 

 

G-----------|--------------------------|--------------------|-------------------

D---5-------|--------------------------|-----4--6-----4--6--|--7-----------2----

A------5\---|--3-----3--2--3-----5-----|--7--------7--------|-------------------

E-----------|--------------------------|--------------------|-------------------

 

 

 

G---|-----------------|--------------------------|-------------------------|----

D---|--3--------------|--3-----3-----3-----3-----|--5-----5-----5-----5\---|----

A---|-----------------|--------------------------|-------------------------|----

E---|-----------------|--------------------------|-------------------------|----

 

 

1:02

G--------------------------|-------------------------|--------------------------

D--------------------------|--2-----2-----2-----2/---|--7-----7-----7-----7-----

A---3-----3-----3-----3h5--|-------------------------|--------------------------

E--------------------------|-------------------------|--------------------------

 

 

 

G------|--------------------------|--------------------------|------------------

D------|--3-----3-----3-----3-----|--------------------------|------------------

A------|-----------------------x--|--0-----0-----0-----0-----|--5-----5---------

E------|--------------------------|--------------------------|------------------

 

 

 

G---------------|--------------------------|--------------------------|---------

D------------7--|--5-----5-----5-----5-----|--------------------------|---------

A---5-----5-----|--------------------------|--3-----3-----2-----2-----|--0------

E---------------|--------------------------|--------------------------|---------

 

 

 

G------------------------|-----------------------------|------------------------

D------7-----7-----7-----|-----------------------7--6--|--5-----5-----5---------

A---------------------4--|--5-----5-----5-----5--------|------------------------

E------------------------|-----------------------------|------------------------

 

 

 

G---------|-----------------------------|--------------------------|------------

D---5-----|-----------------------2--5--|--7-----7-----7-----7-----|------------

A------5--|--3-----3-----3-----3--------|-----------------------7--|--5---------

E---------|-----------------------------|--------------------------|------------

 

 

 

G------------------------|--------------------------|---------------------------

D------------------7--6--|--5-----5-----5-----5-----|---------------------------

A---5-----5-----5--------|-----------------------5--|--3-----3-----3-----5------

E------------------------|--------------------------|---------------------------

 

 

 

G------|--------------------|-----------------|-----------------|---------------

D------|-----4--6-----4--6--|--7-----------2--|--3--------------|--3-----3------

A------|--7--------7--------|-----------------|-----------------|---------------

E------|--------------------|-----------------|-----------------|---------------

 

 

1:44

G---------------|-------------------------|--------------------------|----------

D------3--------|--5-----5-----5-----5\---|--------------------2-----|--2-------

A---------------|-------------------------|--3-----3-----3--5-----3--|----------

E---------------|-------------------------|--------------------------|----------

 

 

 

G--------------------|-------------------------|--------------------------|-----

D---2--0--2--0--2/---|--7-----7-----7-----7\---|--3-----3-----3-----3-----|-----

A--------------------|-------------------------|--------------------------|-----

E--------------------|-------------------------|--------------------------|-----

 

 

 

G---------------------------|--------------------------|------------------------

D---2-----2-----2-----2-----|-----------------2--3-----|--5-----5-----5--3------

A---------------------------|--5-----5-----5--------5--|------------------------

E---------------------------|--------------------------|------------------------

 

 

 

G---------|-----------------------|--------------------------|------------------

D---2-----|-----------------------|--------7-----------------|------------------

A------5--|--3-----3-----2-----2--|--0-----------0-----4-----|--5-----5---------

E---------|-----------------------|--------------------------|-----------5------

 

 

 

G------------------|--------------------------|--------------------------|------

D------------7--6--|--5-----5-----5-----5-----|-----------------------5--|------

A---5-----5--------|-----------------------5--|--3-----3-----5--5--7-----|------

E------------------|--------------------------|--------------------------|------

 

 

 

G---------------------------|-----7-----------------------|---------------------

D---7-----7--------7--------|-----------------7-----6-----|--5-----5------------

A---------------7-----7-----|--5--------5-----------------|--------------5------

E---------------------------|-----------------------------|---------------------

 

 

 

G------------|--------------------------|--------------------------|------------

D------5-----|-----------------------5--|--7-----7-----------7-----|------------

A------------|--3-----3--2--3--5--7-----|--------------7-----------|--5---------

E------------|--------------------------|--------------------------|------------

 

 

 

G------------------------|-------------------------|-----------------||---------

D------------------7--6--|--5-----5-----------5\---|-----------------||---------

A---5-----5-----5--------|--------------5----------|--3--------------||---------

E------------------------|-------------------------|-----------------||---------

 

 

 

 

================================================================================

== Created with a demo version of BUCKET O' TAB ==

== tablature creation software for Windows ==

== http://www.his.com/~gse/bucket ==

================================================================================

 

 

 

Return to my to my Beatles bass tabs page

The Tablature is Copyright its respective owners.

Sign Up For My Newsletter
Subscribe | Unsubscribe

Site Map | Disclaimer | Privacy Policy | Media Kit | Submissions/Corrections

Website © 2000-2014 mattsmusicpage.com. All rights reserved.

Legal & DMCA: Matt's Music Page has been providing lyrics and tabs in a legal way, paying royalties each year to a few organizations. Then, all lyrics and tabs were removed from the site. Now, there's a new owner to the site, which purchased it August 26, 2014, and he is in negotiation to obtain licensing from BMI at the moment. If you have a specific DMCA request -- please do not hesitate to contact me via the contact button on top. I will do my very best to keep this site fully legal.

Get our toolbar!

 

Starbucks You Are Here Coffee Mug/Cup KENTUCKY - Horses, Banjo, Blue, White
$19.99
Starbucks You Are Here Coffee Mug/Cup KENTUCKY - Horses, Banjo, Blue, White picture


KNOWLES ROCKWELL HERITAGE "THE BANJO PLAYER" FIRST EDITION 1989 PLATE COA
$5.99
KNOWLES ROCKWELL HERITAGE


Vintage Postcard 1981 Disney World Banjo Kings Main Street USA 1981 Postmark
$4.99
 Vintage Postcard 1981 Disney World Banjo Kings Main Street USA 1981 Postmark picture


Banjo Barometer With Thermometer Hygrometer 490mm
$84.76
Banjo Barometer With Thermometer Hygrometer 490mm picture


ANTIQUE JAPANESE NIPPON FIGURINE SET OF 3 WOMEN GEISHA PLAYING DRUM BANJO FAN
$24.0
ANTIQUE JAPANESE NIPPON FIGURINE SET OF 3 WOMEN GEISHA PLAYING DRUM BANJO FAN picture