Your One-Stop Source For
Music Lyrics
Bass and Guitar Tabs
and More...
>Music Lyrics Bass and Guitar Tabs

 

The Tabs Are Below

Learn To Read Tab
Chords Handbook
Corrections & Additions
Get Official Tab
Beatles tabs @ 911Tabs

 

The Beatles: Blackbird

(Lennon & McCartney)

from "The White Album" (1968)

 

 

 

 

Intro:

|---------------------------------------------------------|

|--0-----1-----3-----/12-----12---12----12-----12---12----|

|-----0-----0-----0-------0----------0------0----------0--|

|---------------------------------------------------------|

|--------0-----2-----/10-------10-------10-------10-------|

|--3------------------------------------------------------|

 

 

Verse 1 and 2:

|---------------------------------------------------------|

|--0-----1-----3-----/12-----12---12----12-----12---12----|

|-----0-----0-----0-------0----------0------0----------0--|

|---------------------------------------------------------|

|--------0-----2-----/10-------10-------10-------10-------|

|--3------------------------------------------------------|

 

1. Blackbird singing in the dead of night

2. Blackbird singing in the dead of night

 

 

|--------3-----------5---------------------------------|

|--5-----------7---------8-----8---8----8-----8---8----|

|-----0-----0-----0---------0--------0-----0--------0--|

|------------------------------------------------------|

|--3-----4-----5-----6---7-------7------6-------6------|

|------------------------------------------------------|

 

1. Take these broken wings and learn to fly

2. Take these sunken eyes and learn to see

 

 

|--------3-------------------------------------|

|--7-------------5-----5---5----4-----4---4----|

|-----0-----0-------0--------0-----0--------0--|

|-----------------------------------------0-----0---------0--| (Now to verse 2)

|----------------------------0-------0----------------------|

|--3-----2----0-------0-------------------------------------|

|-------------------------------------------3-------3-------|

 

 

 

 

 

B Section:

 

|------------------------------------------------------|

|-10-----8-----6-----5-----3----3---3----5----5---5----|

|-----0-----0-----0-----0-----0-------0-----0-------0--|

|------------------------------------------------------|

|--8-----7-----5-----3-----1------1------3------3------|

|------------------------------------------------------|

 

Black bird fly

 

 

|---------------------------------------------------------------------|

|-10-----8-----6-----5-----3----3---3----2----2---2----1-----1---1----|

|-----0-----0-----0-----0-----0-------0-----0-------0-----0--------0--|

 

Return to my to my Beatles Tabs page

The Tabs are Copyright their respective owners.

Sign Up For My Newsletter
Subscribe | Unsubscribe

Site Map | Disclaimer | Privacy Policy | Media Kit | Submissions/Corrections

Website © 2000-2014 mattsmusicpage.com. All rights reserved.

Legal & DMCA: Matt's Music Page has been providing lyrics and tabs in a legal way, paying royalties each year to a few organizations. Then, all lyrics and tabs were removed from the site. Now, there's a new owner to the site, which purchased it August 26, 2014, and he is in negotiation to obtain licensing from BMI at the moment. If you have a specific DMCA request -- please do not hesitate to contact me via the contact button on top. I will do my very best to keep this site fully legal.

Get our toolbar!

 

Vintage Genuine Incolay San Francisco Music Box Company Cherubs Jewelry Box
$15.0
Vintage Genuine Incolay San Francisco Music Box Company Cherubs Jewelry Box picture


VINTAGE RETRO 1990's "FUNK MASTER FLEX" KEY CHAIN BRAND keychain
$7.99
VINTAGE RETRO 1990's


1985 Vintage Photo by PHOTOGRAPHER JAMES O'MARA Canadian rock band Loverboy
$11.0
1985 Vintage Photo by PHOTOGRAPHER JAMES O'MARA Canadian rock band Loverboy picture


Vintage Musical Glass Swan Figurine - Plays Memories - Rotates - Linden Music
$6.99
Vintage Musical Glass Swan Figurine - Plays Memories - Rotates - Linden Music  picture


Vintage Working Mickey Mouse and Friends Jewelry Music Box
$0.99
Vintage Working Mickey Mouse and Friends Jewelry Music Box picture