Your One-Stop Source For
Music Lyrics
Bass and Guitar Tabs
and More...
Music Lyrics Bass and Guitar Tabs

 

The Tabs Are Below

Learn To Read Tab
Chords Handbook
Corrections & Additions
Get Official Tab
Beatles tabs @ 911Tabs

 

The Beatles: And I Love Her

(Lennon & McCartney)

from "A Hard Days Night" (1963)

 

 

 

Intro: Riff 1

 

F#m E F#m

|-------------------------------------------------------------|

|-------------------------------------------------------------|

|-------------------------------------------------------------|

|------2--1---------------2--1-------------2--1---------------|

|---2--------4---------2-------4--------2--------4------------|

|-------------------------------------------------------------|

 

 

 

F#m C#m

I give her all my love

F#m C#m

That's all I do

F#m C#m

And if you saw my love

A B E

You'd love her too I love her

 

(add riff 2--see below)

F#m C#m

She gives me everything

F#m C#m

And tenderly

F#m C#m

The kiss my lover brings

A B E

She brings to me And I love her.

 

 

C#m B

A love like ours

C#m G#m

Could never die

C#m G#m

As long as I

B

Have you near me

 

 

(with riff 2)

F#m C#m

Bright are the stars that shine

F#m C#m

Dark is the sky

F#m C#m

I know this love of mine

A B E

Will never die and I love her

 

[solo: (see below) --key change!!--]

 

Gm Dm

Gm Dm

Gm Dm

Bb C F

 

 

(with riff 2 played one fret higher)

 

Gm Dm

Bright are the stars that shine

Gm Dm

Dark is the sky

Gm Dm

I know this love of mine

Bb C F

Will never die and I love her

 

 

Outro: (the same as riff 1, just a half step higher)

 

 

Gm F Gm D

|------------------------------------------------------------------|

|------------------------------------------------------------------|

|------------------------------------------------------------------|

|-------3--2---------------3--2-------------3--2----------3--2-----|

|----3--------5---------3-------5--------3--------5-----3-------5--|

|------------------------------------------------------------------|

 

 

 

 

 

 

Solo:

 

Gm Dm Gm Dm Gm Dm

|-------------------------------------------------------------|

|-------------5--3/6------------5--5\3------------5--3/6------|

|-----0--2-3------------0--2-3------------0--2-3--------------|

|-------------------------------------------------------------|

|-------------------------------------------------------------|

|-------------------------------------------------------------|

 

Bb C7 F Gm

|-------------------------------------------------------------|

|-----6-------------------------------------------------------|

|--------7----------------------------------------------------|

|-----------8--7--7/5---------------7-------------------------|

|------------------------3--3--3/5--------3--0----------------|

|-----------------------------------------------3--1--1/3-----|

 

 

riff 1:

 

 

F#m C#m

|-----------9--------------9------------9-----------9---------|

|-------10-----10------10-----10-----9-----9-----9-----9------|

|---11-------------11-------------9-----------9---------------|

|-------------------------------------------------------------|

|-------------------------------------------------------------|

|-------------------------------------------------------------|

 

 

F#m C#m

|-----------9--------------9------------9-----------9---------|

|-------10-----10------10-----10-----9-----9-----9-----9------|

|---11-------------11-------------9-----------9---------------|

|-------------------------------------------------------------|

|-------------------------------------------------------------|

|-------------------------------------------------------------|

 

 

F#m C#m

-----------9--------------9------------9-----------9----------|

-------10-----10------10-----10-----9-----9-----9-----9-------|

---11-------------11-------------9-----------9----------------|

--------------------------------------------------------------|

--------------------------------------------------------------|

--------------------------------------------------------------|

 

A B7

----------9-------------9--------------11-------------11------|

------10-----10-----10-----10------10------10------10----10---|

---9-------------9-------------11--------------11-------------|

--------------------------------------------------------------|

--------------------------------------------------------------|

--------------------------------------------------------------|

 

E(6)

---------9-----------9-----------9------------|

------9-----9-----9-----9-----9-----9---------|

---9-----------9-----------9-----------9------|

----------------------------------------------|

----------------------------------------------|

----------------------------------------------|

 

 

-----------------------

Chris Sears

cts@mail.utexas.edu

 

Return to my to my Beatles Tabs page

The Tabs are Copyright their respective owners.

Sign Up For My Newsletter
Subscribe | Unsubscribe

Site Map | Disclaimer | Privacy Policy | Media Kit | Submissions/Corrections

Website © 2000-2014 mattsmusicpage.com. All rights reserved.

Legal & DMCA: Matt's Music Page has been providing lyrics and tabs in a legal way, paying royalties each year to a few organizations. Then, all lyrics and tabs were removed from the site. Now, there's a new owner to the site, which purchased it August 26, 2014, and he is in negotiation to obtain licensing from BMI at the moment. If you have a specific DMCA request -- please do not hesitate to contact me via the contact button on top. I will do my very best to keep this site fully legal.

Get our toolbar!