Your One-Stop Source For
Music Lyrics
Bass and Guitar Tabs
and More...
Music Lyrics Bass and Guitar Tabs

 

The Tabs Are Below

Learn To Read Tab
Chords Handbook
Corrections & Additions
Get Official Tab
Beastie Boys tabs @ 911Tabs

 

Author/Artist: The Beatles

Title: Twist and Shout

Album: Please Please Me

Transcribed by: Daman Simantiris

Email: izzyaxlduffslash@yahoo.com

 

The other version of Twist and Shout is correct, except its solo and its missing outro. I hope you enjoy it. Great song to play. Email me with any errors - Daman

 

------------------------------------------------------------------------------

-----------------------3------------------------------------------------------

-----------------------2--------2---------------------------------------------

--------------------0--0--0--0--2---------------------------------------------

-----------0--2--4--------2--2--0-0-0-0-0-------------------------------------

--------------------------3--3------------------------------------------------

All Verses Repeat Throughout The Whole Song

 

------------------------------------------------------------------------------

----------------3--2----------------------------------------------------------

-------------4--4--2--2--4--2-------------------------------------------------

-------4--4--5--------4--5--4-------------------------------------------------

-------5--5-------------------------------------------------------------------

------------------------------------------------------------------------------

Solo - Repeat Four Times

 

---------------------------------------------------------2--------------------

-------------------------------------------2-------------2--------------------

------------------------2------------------2-------------2--------------------

--------2----2---2------2----2---2---------2----2---2----2----2---2-----------

--------0--0---0--------0--0---0-----------0--0---0------0--0---0-------------

------------------------------------------------------------------------------

Ahhhhhhhhhhhhhhhh! Ahhhhhhhhhhhhhhh! Ahhhhhhhhhhhhhhh! Ahhhhhhhhhhhhhhh

 

-----3------------------------------------------------------------------------

-----2------------------------------------------------------------------------

-----2------------------------------------------------------------------------

-----2------------------------------------------------------------------------

------------------------------------------------------------------------------

------------------------------------------------------------------------------

Wahhhhhhhhhhhhhhhhhhhhhhhhh!!!! Play over and over with beat of drum

 

---------------2--------------------------------------------------------------

---------------3--------------------------------------------------------------

---------------2--------------------------------------------------------------

------------------------------------------------------------------------------

---0-0-2-3-4-5----------------------------------------------------------------

------------------------------------------------------------------------------

Outro Hey!!!

Return to my to my Beastie Boys tabs page

The Tablature is Copyright its respective owners.

Sign Up For My Newsletter
Subscribe | Unsubscribe

Site Map | Disclaimer | Privacy Policy | Media Kit | Submissions/Corrections

Website © 2000-2014 mattsmusicpage.com. All rights reserved.

Legal & DMCA: Matt's Music Page has been providing lyrics and tabs in a legal way, paying royalties each year to a few organizations. Then, all lyrics and tabs were removed from the site. Now, there's a new owner to the site, which purchased it August 26, 2014, and he is in negotiation to obtain licensing from BMI at the moment. If you have a specific DMCA request -- please do not hesitate to contact me via the contact button on top. I will do my very best to keep this site fully legal.

Get our toolbar!