Your One-Stop Source For
Music Lyrics
Bass and Guitar Tabs
and More...
Music Lyrics Bass and Guitar Tabs

 

The Tabs Are Below

Learn To Read Tab
Chords Handbook
Corrections & Additions
Get Official Tab
Beastie Boys tabs @ 911Tabs

Band: Beastie Boys

Song: Remote Control

Album: Hello Nasty

Tabbed By: Mick85

Tuning: Standard

 

 

 

Mainpart:

---------------|----------------|

---------------|----------------|

---------------|----------------|

-------7-5-----|-------5-3------|

-5-5-8---------|-3-3-6----------|

---------------|----------------|

 

---------------|----------------|

---------------|----------------|

---------------|----------------|

-------7-5-----|-------5-3------|

-5-5-8---------|-3-3-6----------|

---------------|----------------|

After many times comes a litle „lick“.

 

---------------|----------------|

---------------|----------------|

---------------|----------------|

-3h5p3h5-------|-3h5p3h5--------|

---------5-----|---------5------|

---------------|----------------|

 

---------------|----------------|

---------------|----------------|

---------------|----------------|

-3h5p3h5-------|-3h5p3h5--------|

---------5-----|---------5------|

---------------|----------------|

 

This melodys are played with a synth or

Something but on guitar it sounds great.

If you like it mail me. Mick85@gmx.net

 

 

Return to my to my Beastie Boys tabs page

The Tablature is Copyright its respective owners.

Sign Up For My Newsletter
Subscribe | Unsubscribe

Site Map | Disclaimer | Privacy Policy | Media Kit | Submissions/Corrections

Website © 2000-2014 mattsmusicpage.com. All rights reserved.

Legal & DMCA: Matt's Music Page has been providing lyrics and tabs in a legal way, paying royalties each year to a few organizations. Then, all lyrics and tabs were removed from the site. Now, there's a new owner to the site, which purchased it August 26, 2014, and he is in negotiation to obtain licensing from BMI at the moment. If you have a specific DMCA request -- please do not hesitate to contact me via the contact button on top. I will do my very best to keep this site fully legal.

Get our toolbar!