Your One-Stop Source For
Music Lyrics
Bass and Guitar Tabs
and More...
>Music Lyrics Bass and Guitar Tabs

 

The Tabs Are Below

Learn To Read Tab
Chords Handbook
Corrections & Additions
Get Official Tab
Beastie Boys tabs @ 911Tabs

Beastie Boys - Peanut Butter & Jelly

Tabbed by Tim Lippiatt

 

tuning - Eadgbe

 

NOTE: this song has the coolest riff! theres a couple of variations here and there in the song though there not too hard to figure out.

 

first riff

E|---------------------------------

B|-8-6-8-8-9-8-8-6-8-8-9-8-8-6-8--- etc...

G|---------------------------------

D|---------------------------------

A|---------------------------------

E|---------------------------------

 

main riff (it pretty much sticks to this though it sometimes has little variations, you dont NEED them though they arnt to hard to figure out)

E|------------------------------------------------

B|---------------------------------------------8-- start riff over

G|-10-10--10-7-----------7---------7-10-10--10----

D|-------------10-10--10--10-10--10---------------

A|------------------------------------------------

E|------------------------------------------------

 

that solo'ey type bend bit

E|-13b14-13b14-13b14-13b14p13--11----

B|-----------------------------------

G|-----------------------------------

D|-----------------------------------

A|-----------------------------------

E|-----------------------------------

 

this is my personal interpritation of this song and so i cant ever be 100% on its correctness.

 

 

Return to my to my Beastie Boys tabs page

The Tablature is Copyright its respective owners.

Sign Up For My Newsletter
Subscribe | Unsubscribe

Site Map | Disclaimer | Privacy Policy | Media Kit | Submissions/Corrections

Website © 2000-2014 mattsmusicpage.com. All rights reserved.

Legal & DMCA: Matt's Music Page has been providing lyrics and tabs in a legal way, paying royalties each year to a few organizations. Then, all lyrics and tabs were removed from the site. Now, there's a new owner to the site, which purchased it August 26, 2014, and he is in negotiation to obtain licensing from BMI at the moment. If you have a specific DMCA request -- please do not hesitate to contact me via the contact button on top. I will do my very best to keep this site fully legal.

Get our toolbar!

 

UNUSED 1976 vintage greeting card Blue Mountain Arts from Gordon Lightfoot lyric
$3.99
UNUSED 1976 vintage greeting card Blue Mountain Arts from Gordon Lightfoot lyric picture


Lyric Theatre, Blacksburg Virginia March 1961 program, nice ephemera
$11.69
Lyric Theatre, Blacksburg Virginia March 1961 program, nice ephemera picture


Latest Hot Numbers All New Song Hits, Music Lyrics Broadside 1929-1930
$24.99
Latest Hot Numbers All New Song Hits, Music Lyrics Broadside  1929-1930 picture


1960's Soviet Russian card with lyrics to song RETURNING HOME, Vera Zenkovich
$5.99
1960's Soviet Russian card with lyrics to song RETURNING HOME, Vera Zenkovich picture


1910 Irwin PA. Main Street Look North Trolley Lyric, Tin Shop, Church + Postcard
$10.0
1910 Irwin PA. Main Street Look North Trolley Lyric, Tin Shop, Church + Postcard picture