Your One-Stop Source For
Music Lyrics
Bass and Guitar Tabs
and More...
Music Lyrics Bass and Guitar Tabs

 

The Tabs Are Below

Learn To Read Tab
Chords Handbook
Corrections & Additions
Get Official Tab
Beastie Boys tabs @ 911Tabs

 

Beastie Boys

I Don't Know/track 15

Hello Nasty

transcribed by Helior Colorado

Here it goes...

 

standard tuning

 

e |-----------------------------------|e

B|-----------------------------------|B

G|----4---5--------5---4---4--5-|G

D|--5---5---5--3----3---3-------|D

A|-----------------------------------|A

E|-----------------------------------|E

 

e|------------------------------------|e

B|----1---1-------1----0---0--1--|B

G|------------------------------------|G

D|-2---2----2--1---1---1---------|D

A|------------------------------------|A

E|------------------------------------|E

 

 

....And repeat, Enjoy! Kupo!

By the way, I've never tabbed a song before, it should be right, let me know

if otherwise-->> hugePNS@hotmail.com<<

 

 

Return to my to my Beastie Boys tabs page

The Tablature is Copyright its respective owners.

Sign Up For My Newsletter
Subscribe | Unsubscribe

Site Map | Disclaimer | Privacy Policy | Media Kit | Submissions/Corrections

Website © 2000-2014 mattsmusicpage.com. All rights reserved.

Legal & DMCA: Matt's Music Page has been providing lyrics and tabs in a legal way, paying royalties each year to a few organizations. Then, all lyrics and tabs were removed from the site. Now, there's a new owner to the site, which purchased it August 26, 2014, and he is in negotiation to obtain licensing from BMI at the moment. If you have a specific DMCA request -- please do not hesitate to contact me via the contact button on top. I will do my very best to keep this site fully legal.

Get our toolbar!