Your One-Stop Source For
Music Lyrics
Bass and Guitar Tabs
and More...
>Music Lyrics Bass and Guitar Tabs

 

The Tabs Are Below

Learn To Read Tab
Chords Handbook
Corrections & Additions
Get Official Tab
Beastie Boys tabs @ 911Tabs

 

Fight For Your Right

by THE BEASTIE BOYS

 

Intro

e---------------------------------------------------------

B--------------------------------------------5---7--7----- repeat

G--------------------------------x-----------5---7--7----- a few times

D-------7------------------------x--7-----7--5---7--7--7--

A-------7---------------------------7-----7--3---5--5--7--

E---5---5---------------------------5-----5--3---5-----5--

"Kick It"

 

e---------------------------------------

B-------5---7--7-----------5------------

G-------5---7--7-----------5------------

D----7--5---7--7--7----7---5------------

A----7--3---5--5--7----7---3------------

E----5--3---5-----5----5---3----0--3--0-

 

Verse

pm......................

e------------------------------ play a --------------------

B------------------------------ while then -------5---7--7-----

G------------------------------ go to -------5---7--7-----

D-7---7--7--7--7--7--7--7--7--7 ----7--5---7--7--7--

A-7---7--7--7--7--7--7--7--7--7 ----7--3---5--5--7--

E-5---5--5--5--5--5--5--5--5--5 ----5--3---5-----5--

 

 

Chorus

 

(You gotta fight) (for your right) (to party)

e--------------------------------------------------------------

B------------------7---7-----------------7--7--7----------5--7-

G------------------7---7-----------------7--7--7----------5--7-

D------------------7---7-----------------7--7--7--7----7--5--7-

A------------------5---5-----------------5--5--5--7----7--3--5-

E------------------5---5--------------------------5----5--3--5-

 

e-------

B-7-----

G-7----- play a

D-7--7-- few times

A-5--7--

E----5--

 

Thats pretty much it listen to the song to figure it out.

 

Return to my to my Beastie Boys tabs page

The Tablature is Copyright its respective owners.

Sign Up For My Newsletter
Subscribe | Unsubscribe

Site Map | Disclaimer | Privacy Policy | Media Kit | Submissions/Corrections

Website © 2000-2014 mattsmusicpage.com. All rights reserved.

Legal & DMCA: Matt's Music Page has been providing lyrics and tabs in a legal way, paying royalties each year to a few organizations. Then, all lyrics and tabs were removed from the site. Now, there's a new owner to the site, which purchased it August 26, 2014, and he is in negotiation to obtain licensing from BMI at the moment. If you have a specific DMCA request -- please do not hesitate to contact me via the contact button on top. I will do my very best to keep this site fully legal.

Get our toolbar!

 

VTG 1950s MIB NOS Occupied Japan Pee Wee PeeWee Harmonica & Display Box
$39.95
VTG 1950s MIB NOS Occupied Japan Pee Wee PeeWee Harmonica & Display Box picture


1978 Bandmaster Piccolo Harmonica Savannah GA Fred Gretsch Photo Print Ad
$11.99
1978 Bandmaster Piccolo Harmonica Savannah GA Fred Gretsch Photo Print Ad picture


Sarah's Attic Limited Edition Black Americana Figures 2 Banjo Player Harmonica
$35.0
Sarah's Attic Limited Edition Black Americana Figures 2 Banjo Player Harmonica  picture


The actor Edvin Adolphson playing harmonica - Vintage photo
$12.9
The actor Edvin Adolphson playing harmonica - Vintage photo picture


Vintage Snappy Mini. Key Chain Harmonica Japan 1-3/8" Free US Shipping
$7.0
Vintage Snappy Mini. Key Chain Harmonica Japan 1-3/8