Your One-Stop Source For
Music Lyrics
Bass and Guitar Tabs
and More...
>Music Lyrics Bass and Guitar Tabs

 

The Tabs Are Below

Learn To Read Tab
Chords Handbook
Corrections & Additions
Get Official Tab
Beastie Boys tabs @ 911Tabs

beastie boys

 

 

the biz vs the nuge

 

 

album: check your head

 

 

TRANSCRIBED BY RUDY GUZMAN

 

 

guzman_84@hotmail.com

 

the beastie boooooooooooooyssss

e:--------------------------------------------------------------------------------------|

B:------------5--(5)--(5)--(5)-----5--3--2--2-------------------------------------------|

G:--------------------------------------------2--------------2-3b--3b--3b--3b-3b--1~~~~-|

D:----------------------------------------------2--(2)--2--4----------------------------|

A:--------------------------------------------------------------------------------------|

E:--------------------------------------------------------------------------------------|

so there....

e:--------------------------------------------------------------------------------------|

B:------------5--(5)--(5)--(5)-----5--3--2--2-------------------------------------------|

G:--------------------------------------------2--------------2-3b--3b--3b--3b-3b--1~~~~-|

D:-2--2-----------------------------------------2--(2)--2--4----------------------------|

A:--------------------------------------------------------------------------------------|

E:--------------------------------------------------------------------------------------|

 

Return to my to my Beastie Boys tabs page

The Tablature is Copyright its respective owners.

Sign Up For My Newsletter
Subscribe | Unsubscribe

Site Map | Disclaimer | Privacy Policy | Media Kit | Submissions/Corrections

Website © 2000-2014 mattsmusicpage.com. All rights reserved.

Legal & DMCA: Matt's Music Page has been providing lyrics and tabs in a legal way, paying royalties each year to a few organizations. Then, all lyrics and tabs were removed from the site. Now, there's a new owner to the site, which purchased it August 26, 2014, and he is in negotiation to obtain licensing from BMI at the moment. If you have a specific DMCA request -- please do not hesitate to contact me via the contact button on top. I will do my very best to keep this site fully legal.

Get our toolbar!

 

1976 Gibson Ripper and g-3 bass guitar photo vintage print ad
$9.99
1976 Gibson Ripper and g-3 bass guitar photo vintage print ad picture


Fender ROAD WORN Neon Style GUITARS & BASSES Music Embossed = Metal Sign
$45.99
Fender ROAD WORN Neon Style GUITARS & BASSES Music Embossed = Metal Sign picture


1978 GUILD B-302 Bass Guitar Makes You Glad You're A Bass Player Vintage Ad
$9.95
1978 GUILD B-302 Bass Guitar Makes You Glad You're A Bass Player Vintage Ad picture


ATLANTA CLASSIC *RED RICKENBACKER BASS* GUITAR Hard Rock Cafe PINS
$11.04
ATLANTA  CLASSIC *RED RICKENBACKER BASS* GUITAR Hard Rock Cafe PINS picture


1980 ONCOR B.G.S. 4000 Bass Guitar Synthesizer “The Touch” Gerald Conway Ad
$7.96
1980 ONCOR B.G.S. 4000 Bass Guitar Synthesizer “The Touch” Gerald Conway Ad picture