Your One-Stop Source For
Music Lyrics
Bass and Guitar Tabs
and More...
Music Lyrics Bass and Guitar Tabs

 

The Tabs Are Below

Learn To Read Tab
Chords Handbook
Corrections & Additions
Get Official Tab
Barenaked Ladies tabs @ 911Tabs

 

When I Fall

 

[Guitar | Interpretations]

 

Guitar Chords

 

Capo on 4th fret

 

Intro

G7sus C G7sus Gno3

----------------|--------------|----------------|---------------|-----------|

----1--0--------|-------1------|---------1------|---------3-----|-1--0------|

----0------2-0--|-----------0--|-------------0--|------------0--|-------2-0-|

----0-----------|-0h2----------|------0---------|------0--------|-----------|

----------------|-3------------|----------------|---------------|-----------|

----1-----------|--------------|-0h1------------|--1h3----------|-----------|

 

Am G7sus Gno3 Cadd9

------------------|----------------|-----------------|-----------|----------------|

---------1--------|---------1------|-----------3-----|-1--0------|--------3-------|

---0h2------2-----|-------------0--|--------------0--|-------2p0-|-----------0----|

---0h2------------|------0---------|--------0--------|-----------|-----2----------|

------------------|----------------|-----------------|-------0h2-|---3------------|

------------------|-0h1------------|--1h3------------|-----------|----------------|

 

G7sus Gno3 Am G7sus

|---------------|---------------|-----------|----------------|---------------

|--------1------|---------3--0--|-1--0------|---------1------|--------1------

|------------0--|---------------|-------2-0-|---0h2------2---|------------0--

|-------0-------|------0--------|-----------|---0h2----------|-----0---------

|---------------|---------------|-----------|----------------|---------------

|--0h1----------|-1h3-----------|-----------|----------------|-0h1-----------

 

Verse:

Gno3

|---------------|-----------|

|---------3-----|------3----|

|------------0--|-----------|

|------0--------|-0h2-------|

|---------------|---------2-|

|-1h3-----------|-----------|

I look straight in the

 

Cadd9 G7sus Gno3 Gno3

|-------------|--------------|---------------|-------------|

|*------3-----|--------1-----|---------3--0--|---random----|

|----------0--|------------0-|---------------|-------------|

|----2--------|-----0--------|------0--------|fingerpicking|

|*-3----------|--------------|---------------|-------------|

|-------------|-0h1----------|-1h3-----------|-------------|

window try not to look

shower off this office

 

Am Gno3 G7sus

|--------------|------------|------------|-------------|

|---------1----|-------3----|-------1----|---random----|

|---0h2------2-|---------0--|---------0--|-------------|

|---0h2--------|-----0------|-----0------|fingerpicking|

|--------------|------------|------------|-------------|

|--------------|-0h3--------|-0h1--------|-------------|

below pretend I'm not

tower it's 9.8

 

Cadd9 G7sus Gno3 Gno3

|-------------|--------------|---------------|-------------|

|-------3-----|--------1-----|---------3--0--|---random----|

|----------0--|------------0-|---------------|-------------|

|----2--------|-----0--------|------0--------|fingerpicking|

|--3----------|--------------|---------------|-------------|

|-------------|-0h1----------|-1h3-----------|-------------|

up here I try counting

straight down I can't stop my

 

 

Dadd9/F# G7sus Gno3 Gno3

|-0-----------|-------------|--------------|---------------|

|-3-----------|-------------|--------1-----|---------3--0-*|

|-2--------strum------------|------------0-|---------------|

|-0-----------|-------------|-----0--------|------0--------|

|-0-----------|-------------|--------------|--------------*|

|-2-----------|-------------|-0h1----------|-1h3-----------|

sheep the sheep seem to

knees I wish I could

 

Am Am7 Am7/G Dadd9/F#

Fly from this building from this wall

G7sus Gno3 Am Am7 Am7/G Dadd9/F# G7sus Gno3

And if I should try would you catch me if I fall

 

G7sus Gno3 Fmaj9 G6

I wish I could step from this scaffold

Em7 Am

Onto soft green pastures shopping malls or

Fmaj9 G6 Em7

Bed with my family and my pastor and my

Am Dadd9/F#

Grandfather who's dead

 

 

G7sus 1x0010 Gno3 3x0030 Cadd9 032030 Am7 x02210

 

Am7/G 302013 Dadd9/F# 200230 Fmaj9 1x0010

 

Whew. Done. This is the only song where I admit using the BOAPS piano book

a bit, but it only gives chords, not the tab, so it still wasn't much help.

The chords for sure are right, they're straight from Ed, but the rest is

open to debate. Enjoy.

 

Top

 

Interpretations

 

Top

 

[Guitar | Interpretations]

 

Back to the Index

 

 

Return to my to my BNL tabs page

The Tablature is Copyright its respective owners.

Sign Up For My Newsletter
Subscribe | Unsubscribe

Site Map | Disclaimer | Privacy Policy | Media Kit | Submissions/Corrections

Website © 2000-2014 mattsmusicpage.com. All rights reserved.

Legal & DMCA: Matt's Music Page has been providing lyrics and tabs in a legal way, paying royalties each year to a few organizations. Then, all lyrics and tabs were removed from the site. Now, there's a new owner to the site, which purchased it August 26, 2014, and he is in negotiation to obtain licensing from BMI at the moment. If you have a specific DMCA request -- please do not hesitate to contact me via the contact button on top. I will do my very best to keep this site fully legal.

Get our toolbar!